Oops, an error
Loading. Please wait.

From The Right Angle Tab

3,852 views 24 this week
1 commentread comment
1 2 3 4 5
excellent!
x 8
add to favorites
launch autoscroll
font size
0
reset
how to read this tab
guitar tuner
Tab Pro tools
  • play this tab
  • loop segment
  • change instrument
  • show fretboard
  • metronome
×
Best way to learn
"From The Right Angle"
Autoscroll
slow
fast
+/-
esc
set tempo
stop
Contributor
Difficulty
intermediate
-------------------------------------------------------------------------------
                      FROM THE RIGHT ANGLE - Dawes
-------------------------------------------------------------------------------

Tabbed by: Macheeoo
E-mail: macheeoo@yahoo.com

Tuning: Standard


This is the exact method in which frontman Taylor Goldsmith of Dawes plays
this song on guitar -- this tab is based off the instructional video he 
posted for fans to learn the song and compete in the Dawes cover competition
in June/July 2013.

Chords to know for strumming!
    E   A   F#m  B
e|--0---0---2----2---|
B|--0---2---2----4---|
G|--1---2---2----4---|
D|--2---2---4----4---|
A|--2---0---4----2---|
E|--0---X---2----X---|


Riff 1 (Intro, Chorus)         ( A )
e|-------------------------------0----|
B|------12----12----10---9--5----5----|
G|------13----11----9----9--4----6----|
D|------14----13----11---9--6----7----|
A|-----------------------------0------|
E|---0------0----0--------------------|

Riff 2 (Verse, Chorus)         ( A2 )
e|-------------------------------0----|
B|------12----12----10---9--7----0----|
G|------13----11----9----7--7----6----|
D|------14----13----11---9--7----7----|
A|-------------------------------7----|
E|---0------0----0--------------------|


Intro: Play Riff 1


Verse 1:
     E                               A
You found me on the other side of a loser's winning streak
         E                                       A
Where my thoughts all wandered further than they should
        E                              A                 F#m  
Let me sing to you my solitude, let me pay for your next drink
       Riff 2                                      ( A2 )
Let me defend these hearts which are so rarely understood


Chorus:
         Riff 1                   ( A )
From the right angle, in the right light
   Riff 1                            ( A )
I might seem like I could take care of you
      Riff 1            ( A )  F#m      
For a brief moment, for a few nights
          Riff 2                              ( A2 )
Until the changing world has tumbled back into view


Verse 2:

      E                                     A
Where nothing really matters the world gets harder to resist
     E                                        A
And saves you a place at the end of an empty glass
      E                            A               F#m
I am here as a reminder, the quick glance off of a cliff
  Riff 2                                   ( A2 )
I guess that's why I though you would never ask


Chorus:
         Riff 1                   ( A )
From the right angle, in the right light
   Riff 1                            ( A )
I might seem like I could take care of you
      Riff 1            ( A )  F#m      
For a brief moment, for a few nights
          Riff 2                              ( A2 )
Until the changing world has tumbled back into view


Verse 3:
       E                                         A
At the scene of all I've left unlearned, in the directions to your house
    E                                  A
In every swing I took to crack the code
         E                                        A                    F#m
I need a cold beer from a dressing room, I need a string of dates back out
                    B                                      A  A  A (STRUM!!)
I think there are a few of us that still belong out on the road


Solo:
e|--------------------------------------------------------------------|
B|---9-10-12-12-12-12-12-12-12-10-9-9~-7-9/10-10-10-10-9--------------|
G|-------------------------------------------------------9-6----------|
D|--------------------------------------------------------------------|
A|--------------------------------------------------------------------|
E|--------------------------------------------------------------------|
 |                                                                    |
e|--------------------9-11-12-12-12-12-12-11--------------------------|
B|---9-10-12-12-12-12------------------------12-12/14-14-14-14~-------|
G|--------------------------------------------------------------------|
D|--------------------------------------------------------------------|
A|--------------------------------------------------------------------|
E|--------------------------------------------------------------------|



Chorus:
         Riff 1                   ( A )
From the right angle, in the right light
   Riff 1                            ( A )
I might seem like I could take care of you
      Riff 1            ( A )  F#m      
For a brief moment, for a few nights
          Riff 2                              ( A2 )
Until the changing world has tumbled back into view
      Riff 2                           ( A2 )
Until all you want is all I know how to do
Riff 2                                ( A2 )
I might seem like I could take care of you


END!!!
comments
print report bad tab
1 comment total.
+1 reply
DrLeonard wrote on August 12 2014, 09:28 am

sorry to disagree with the exact method thing ;-)

Riff 1 (Intro, Chorus) ( A )
e|----0-----0-----0----0----0----0----|
B|---12----12----10----9----5----5----|
G|---13----11-----9----9----4----6----|
D|---14----13----11----9----6----7----|
A|----x-----x-----x----x----x----7----|
E|----0-----0-----0----0----0----5----|


Riff 2 (Verse, Chorus)
e|------7-----7------x-------x-----x-----x-----|
B|------9-----7------10------9-----7-----5-----|
G|------9-----8------11------7-----7-----6-----|
D|------x-----x------9-------9-----7-----6-----|
A|------x-----x------x-------x-----x-----0-----|
E|------7-----7------11------0-----0-----x-----|

E/B B B7 E7 D/E Amaj7

I think that these are the correct riffs, otherwise great job!!!!

I want to post or [tab]
guest
You may want to rate the tab now too:
select rating
Please do not post tabs as comments. Select "correction" instead!