Oops, an error
Loading. Please wait.

I Cant Think About It Now tab

version 2
version 2

Whole song

by Dawes
289 views 1 this week
no commentswrite comment
1 2 3 4 5
2 more votes to show rating
add to favorites
×
Save as Personal and add changes to this tab that will be seen only by you. Learn more ›
×
You can save this tab as Personal to edit and correct it or add notes. All changes will be seen only by you. Learn more »
launch autoscroll
font size
0
reset
how to read this tab
guitar tuner
edit
Autoscroll
slow
fast
+/-
esc
set tempo
stop
Author
Difficulty
Tabbed by: Arsid
Tuning: Standard
Difficulty: Verses/Chorus: Easy, Solo: Hard


[Intro]

e|-8---7---5--|
B|-10--8---5--|
G|-9---7---5--| x2
D|-10--9---7--|
A|------------|
E|------------|


[Main Riff / Chorus]

e|----------------3p0----------|
B|-5/-10---13-12------3--------|
G|-4/-9----12-12---------------| x2
D|-5/-10---14-12---------------|
A|-----------------------------|
E|-----------------------------|

Just slide up to that 10/9/10 chord. I slide from 5/4/5, but you play it so fast it doesn't really matter.


[Verse]

The verse is mostly just a quiet acoustic guitar playing these chords, with Taylor playing the chord softly
on electric every time the chord changes:

   Am      F      G      Em
e|--0------1------3------0----|
B|--1------1------0------0----|
G|--2------2------0------0----|
D|--2------3------0------2----|
A|--0------3------2------2----|
E|--x------1------3------0----|

In this pattern:

Am                          
If you’re just asking for a reason
                             F
Reasons are everywhere you look
G                       Em
The only difference between them
Am                              F
Are which you gave and which you took


The pattern stays the same for all the verses.


[Verse Riffs]

Riff 1 (during second Verse):

e|----------------|
B|------1p0-------|
G|---------2p0----|
D|-------------2~-|
A|----------------|
E|----------------|

This little bend happens during third verse:

e|--------------------------------|
B|-----8b10r8---------------------|
G|--------------------------------|
D|--------------------------------|
A|--------------------------------|
E|--------------------------------|


[Bridge]

e|------------------------------|
B|-------5-3------5-3-1~--------|
G|-------5-4------5-4-2~--------| X4
D|--7p5------7p5----------------|
A|-----7--------7---------------|
E|------------------------------|

e|--0--0--3--0--0----------------|
B|--1--3--0--1--3----------------|
G|--2--4--0--2--4----------------|
D|--3--5--0--3--5----------------|
A|--3--5--2--3--5----------------|
E|--------3----------------------|


[Solo]

e|--------------------------------------------------------------------|
B|---8-6------------------------8-6-----------------------------------|
G|-------9p7-9-7~---5\4-5\4/7-------9p7-7/9--7p5----------------------|
D|----------------------------------------------7---7\5/9-------------|
A|--------------------------------------------------------------------|
E|--------------------------------------------------------------------|

e|-----------------------------------------------------------------------------------------------------------|
B|-------------6-6p5-----5-/8-8~--6\5/6--6p5---4/5--/10-10~--5/6-6p5------4/5-/8-8~--5/6-6p5-----4/5-/10-10--|
G|--------7-9--------7p5--------------------7p5----------------------7p5---------------------7p5-------------|
D|---9-10----------------------------------------------------------------------------------------------------|
A|-----------------------------------------------------------------------------------------------------------|
E|-----------------------------------------------------------------------------------------------------------|

e|----------12-----15-------15------15-------15-----|
B|--12--13-------13----13-12---12-13---13-12--------|
G|--------------------------------------------------|
D|--------------------------------------------------| Repeat that pattern for awhile
A|--------------------------------------------------|
E|--------------------------------------------------|
-
e|---------------------------------------------------------------------------------------------------------|
B|--12-12/13-12----12---------------------12---/15-15p13p12----13~----15b17-15-13-12-15-15b17-15-13-15~~---|
G|--------------14----12~-----12h14p12h14------------------14----------------------------------------------|
D|-----------------------14--------------------------------------------------------------------------------|
A|---------------------------------------------------------------------------------------------------------|
E|---------------------------------------------------------------------------------------------------------|

e|-12h13-12h13-12--------------13p12----------------------17----------------------------|
B|----------------15-12/13-12--------15-13~-12-13-15-15b17--17r15p13-15-15b17~----------|
G|--------------------------------------------------------------------------------------|
D|--------------------------------------------------------------------------------------|
A|--------------------------------------------------------------------------------------|
E|--------------------------------------------------------------------------------------|


e|-15-15-15-15-15-12-12-13-13-----------12------------------------------------------|
B|-----------------------------15-15-------13-13-15-12h13p12------------------------|
G|----------------------------------------------------------14-12-14p12----12~-14---|
D|----------------------------------------------------------------------14----------|
A|----------------------------------------------------------------------------------|
E|----------------------------------------------------------------------------------|

e|----------------------------------------------|
B|-----------------------12h13p12---------------|
G|-----------12----12-14----------14-12h14------|
D|--12h13h14----14-------------------------14---|
A|----------------------------------------------|
E|----------------------------------------------|

e|--------------------------------------------------12~--13---------|
B|---------------------12~--12p10----10-12-13~--15~--------15~~~----|
G|--14--14p12----12-14------------12--------------------------------|
D|------------14----------------------------------------------------|
A|------------------------------------------------------------------|
E|------------------------------------------------------------------|

This is where it gets loud (and fun)

e|----12--15b17~--15p12-15-15b17-15b17-15-12-----------------------------------|
B|-15----------------------------------------15-15b17-15-13-12----12-13~~~-----|
G|-------------------------------------------------------------14--------------|
D|-----------------------------------------------------------------------------|
A|-----------------------------------------------------------------------------|
E|-----------------------------------------------------------------------------|

e|------------------------------------------------------------------------------------------------------|
B|-13p12--------------------------------------------------------------------------------------12-13-15--|
G|-------14-12-----------------------------------------------------------------------12-13-14-----------|
D|-------------14-13-12~-12~----12h14-12~-----------------------------------12-13-14--------------------|
A|---------------------------15-----------15-12h14-12-----------11-12-14-15-----------------------------|
E|----------------------------------------------------15~-12-15-----------------------------------------|

e|--------------------------------------------------17-----------------------------------------------------|
B|-15b17r15-15b17r15-15b17~-15-13-15b17-15-13-15b17----15b17~~-12h13p12------------------------------------|
G|---------------------------------------------------------------------14-12---12h14-12--------------------|
D|---------------------------------------------------------------------------14---------14\12-10~-12-------|
A|---------------------------------------------------------------------------------------------------------|
E|---------------------------------------------------------------------------------------------------------|
 
e|----------------------------------------------------------------------------12-13~-13~-13~-13~-13~-13~-13~-|
B|---------------------------------------------------------------12----12-13---------------------------------|
G|--/7-7-7-/5-/9--9----------------------------12----12-14-12-14----14---------------------------------------|
D|--/9-9-9-/7-/10-10-9-12-12-10-14-14-12-12h14----14---------------------------------------------------------|
A|-----------------------------------------------------------------------------------------------------------|
E|-----------------------------------------------------------------------------------------------------------|



********************************************
|b   bend
|r   return to, usually after a bend
|/   slide
|~   hold the note
********************************************
Suggest correction
Creating personal tab
Creating personal tab
You can edit any tab online and save it as your Personal.

You can edit, replace or remove any tab part or add personal notes – all changes will be seen only by you.

Personal tabs can be accessed anytime from any device, even offline.
Learn more »
Give kudos to tab author, rate the tab!
1 2 3 4 5
comments
print report bad tab
guest
You may want to rate the tab now too:
select rating
Wanna post a correction for this tab? Suggest correction