Oops, an error
Loading. Please wait.

Just Beneath The Surface tab

by Dawes
1,100 views 1 this week
no commentswrite comment
1 2 3 4 5
3 more votes to show rating
add to favorites
×
Save as Personal and add changes to this tab that will be seen only by you. Learn more ›
×
You can save this tab as Personal to edit and correct it or add notes. All changes will be seen only by you. Learn more »
launch autoscroll
font size
0
reset
how to read this tab
guitar tuner
edit
Autoscroll
slow
fast
+/-
esc
set tempo
stop
Dawes - Just Beneath the Surface

This is how I saw them playing it live. Thereis a palm muted G  Bm D part before the whoo ooo part

capo 3rd



G   Bm   D      (partly muted, repeated several times)
G   Bm   D      (D Figure 1)


Intro (whoo oooo part)

G     Bm     D
G     Bm     D


       G                    Bm                   D
Have you ever thought your little girl glamour shots
Em                           Bm                 A         D
And the events of that whole day spent at the mall
       G                      Bm                       D
Is maybe a part of you you didn't know you were clinging to?
Em                     Bm                               F#                      
As if that's where the secret had taken its hold most of all
G                               Em                D       
Like a feather that finds its invisible path as it falls

D                                A7 
Just beneath the surface there's another one of me
  A7sus4    A7   A7sus2       A7      G                  D
At the root of all my trouble, in the twitch before I speak
D                             A7     F#            G
With thoughts and revelations even I could not accept
G                      Em                 A              D
So just beneath the surface is where he will stay kept


G     Bm     D (Fill 1)
G     Bm     D (Fill 2)


                  G               Bm                   D
When you talk about me, do you stick to the memories?
Em                    Bm           A      A/D Figure
Or was I just another victim of the case?
     G                             Bm                 D
The one that went cold on you the way it was meant to do
Em                     Bm                    F#
For any detective that hasn't accepted his place
G                         Em                       D
And still wanders a city in hopes of it showing its face

D                                A7 
Just beneath the surface there's another one of me
  A7sus4    A7   A7sus2       A7               G           D
At the root of all my trouble, in the twitch before I speak
D                              A7     F#            G
With thoughts and revelations even I could not accept
G                      Em                 A              D
So just beneath the surface is where he will stay kept


BREAK
              A                        Bm                 G
Between the thoughtless words and the wordless thoughts
            A                     Bm               G
Between my plotless fears and my fearless plots
A                                               Bm                    G
Between the parts of me I keep from you and the things that I'm just not
 G                     Em
The center keeps on drifting
A               D     (Figure D2)
the music never stops


D                                A7 
Just beneath the surface there's another one of me
  A7sus4    A7   A7sus2       A7               G           D
At the root of all my trouble, in the twitch before I speak
D                                   F#            G
With thoughts and revelations even I could not accept
G                      Em                 A              D
So just beneath the surface is where he will stay kept
G                      Em                 A              D
So just beneath the surface is where he will stay kept




Intro D Figure 1
|----------5--------|
|-0--3--5----5--3---|
|-0--2--2----2--2---|
|-0--0--0----0--0---|
|-------------------|
|-------------------|

After Break D Figure 2
|---2--3--4--5------|
|---3--3--3--3------|
|---2--2--2--2------|
|---0--0--0--0------|
|-------------------|
|-------------------|



Chorus A Figure
   
   A7  A7sus4   A7   A7sus2  A7
|--3-----3------3-----3------3-------------|
|--2-----3------2-----0------2-------------|
|--0-----0------0-----0------0-------------|
|--2-----2------2-----2------2-------------|
|--0-----0------0-----0------0-------------|
|------------------------------------------|

Verse A/D Figure

   A  D  A  D
|--x--x-----x--x---|
|--2-h3--2-h3--2---|
|--2--2--2--2--2---|
|--2-h4--2-h4--2---|
|--0--0--0--0--0---|
|------------------|


Break Figure

|-x------x--x-----x--x-----2----------------3---|
|-2------2-h3--2-h3--2-----3-------2-x-2-0--0---|
|-2------2--2--2--2--2-----4-------2-x-2-0--0---|
|-2------2-h4--2-h4--2-----4-------2-x-2-0--0---|
|-0------0--0--0--0--0-----2----------------2---|
|-------------------------------------------3---|

Fill 1

|-5s7-5-------------|
|--------7-7p5-s-3b-|
|-------------------|
|-------------------|
|-------------------|
|-------------------|

Fill 2

|-10-9-7-------------|
|--------9-7-s-5-s-3-|
|--------------------|
|--------------------|
|--------------------|
|--------------------|

            
            
Suggest correction
Creating personal tab
Creating personal tab
You can edit any tab online and save it as your Personal.

You can edit, replace or remove any tab part or add personal notes – all changes will be seen only by you.

Personal tabs can be accessed anytime from any device, even offline.
Learn more »
Give kudos to tab author, rate the tab!
1 2 3 4 5
comments
print report bad tab
guest
You may want to rate the tab now too:
select rating
Wanna post a correction for this tab? Suggest correction