Oops, an error
Loading. Please wait.

One Of Us Tab

445 views 21 this week
no commentswrite comment
1 2 3 4 5
2 more votes to show rating
add to favorites
launch autoscroll
font size
0
reset
how to read this tab
guitar tuner
Autoscroll
slow
fast
+/-
esc
set tempo
stop
Help us to improve Ultimate-Guitar.com Take our survey!
×
Author
Difficulty
novice
[Intro]

Main riff which repeats for most of the song
e|--------------------------------------------------|--------------------------------------------------|
B|--------------------------------------------------|--------------------------------------------------|
G|--------------------------------------------------|--------------------------------------------------|
D|--------------------------------------------------|--------------------------6-6--6-6--7-7--7-6--4-2-|
A|------------------------------------7-7--7-6--4-2-|-0-0--0-0--4-4--4-4--4-6--------------------------|
E|-0-0--0-0--4-4--4-4--4-5--7-7--7-7----------------|--------------------------------------------------|

e|--------------------------------------------------|--------------------------------------------------|
B|--------------------------------------------------|--------------------------------------------------|
G|--------------------------------------------------|--------------------------------------------------|
D|-----------1-1--1-1--1-2--4-4--4-4--9-9--9-9--7-7-|-6-6--6-6-----------------------------------------|
A|-2-2--2-2-----------------------------------------|-----------7-7--7-7--4-4--2-2--2-2----------------|
E|--------------------------------------------------|------------------------------------0-0--0-0--0---|


[Verse 1]

Same as the intro but played twice
e|--------------------------------------------------|--------------------------------------------------|
B|--------------------------------------------------|--------------------------------------------------|
G|--------------------------------------------------|--------------------------------------------------|
D|--------------------------------------------------|--------------------------6-6--6-6--7-7--7-6--4-2-|
A|------------------------------------7-7--7-6--4-2-|-0-0--0-0--4-4--4-4--4-6--------------------------|
E|-0-0--0-0--4-4--4-4--4-5--7-7--7-7----------------|--------------------------------------------------|

e|--------------------------------------------------|--------------------------------------------------|
B|--------------------------------------------------|--------------------------------------------------|
G|--------------------------------------------------|--------------------------------------------------|
D|-----------1-1--1-1--1-2--4-4--4-4--9-9--9-9--7-7-|-6-6--6-6-----------------------------------------|
A|-2-2--2-2-----------------------------------------|-----------7-7--7-7--4-4--2-2--2-2----------------|
E|--------------------------------------------------|------------------------------------0-0--0-0--0---|

e|--------------------------------------------------|--------------------------------------------------|
B|--------------------------------------------------|--------------------------------------------------|
G|--------------------------------------------------|--------------------------------------------------|
D|--------------------------------------------------|--------------------------6-6--6-6--7-7--7-6--4-2-|
A|------------------------------------7-7--7-6--4-2-|-0-0--0-0--4-4--4-4--4-6--------------------------|
E|-0-0--0-0--4-4--4-4--4-5--7-7--7-7----------------|--------------------------------------------------|

e|--------------------------------------------------|--------------------------------------------------|
B|--------------------------------------------------|--------------------------------------------------|
G|--------------------------------------------------|--------------------------------------------------|
D|-----------1-1--1-1--1-2--4-4--4-4--9-9--9-9--7-7-|-6-6--6-6-----------------------------------------|
A|-2-2--2-2-----------------------------------------|-----------7-7--7-7--4-4--2-2--2-2----------------|
E|--------------------------------------------------|------------------------------------0-0--0-0--0---|


[Chorus 1]

A                    E
You look like one of them
N.C.    B                E
But you talk like one of us
A                  E                  B
Everything they're telling you is wrong
A                    E
You look like one of them
N.C.    B                E
But you talk like one of us
A            E                       B
Babe I think you know where you belong


[Verse 2]
(same as verse 1)

e|--------------------------------------------------|--------------------------------------------------|
B|--------------------------------------------------|--------------------------------------------------|
G|--------------------------------------------------|--------------------------------------------------|
D|--------------------------------------------------|--------------------------6-6--6-6--7-7--7-6--4-2-|
A|------------------------------------7-7--7-6--4-2-|-0-0--0-0--4-4--4-4--4-6--------------------------|
E|-0-0--0-0--4-4--4-4--4-5--7-7--7-7----------------|--------------------------------------------------|

e|--------------------------------------------------|--------------------------------------------------|
B|--------------------------------------------------|--------------------------------------------------|
G|--------------------------------------------------|--------------------------------------------------|
D|-----------1-1--1-1--1-2--4-4--4-4--9-9--9-9--7-7-|-6-6--6-6-----------------------------------------|
A|-2-2--2-2-----------------------------------------|-----------7-7--7-7--4-4--2-2--2-2----------------|
E|--------------------------------------------------|------------------------------------0-0--0-0--0---|

e|--------------------------------------------------|--------------------------------------------------|
B|--------------------------------------------------|--------------------------------------------------|
G|--------------------------------------------------|--------------------------------------------------|
D|--------------------------------------------------|--------------------------6-6--6-6--7-7--7-6--4-2-|
A|------------------------------------7-7--7-6--4-2-|-0-0--0-0--4-4--4-4--4-6--------------------------|
E|-0-0--0-0--4-4--4-4--4-5--7-7--7-7----------------|--------------------------------------------------|

e|--------------------------------------------------|--------------------------------------------------|
B|--------------------------------------------------|--------------------------------------------------|
G|--------------------------------------------------|--------------------------------------------------|
D|-----------1-1--1-1--1-2--4-4--4-4--9-9--9-9--7-7-|-6-6--6-6-----------------------------------------|
A|-2-2--2-2-----------------------------------------|-----------7-7--7-7--4-4--2-2--2-2----------------|
E|--------------------------------------------------|------------------------------------0-0--0-0--0---|


[Chorus 2]
(same as chorus 1)

A                    E
You look like one of them
N.C.    B                E
But you talk like one of us
A                  E                  B
Everything they're telling you is wrong
A                    E
You look like one of them
N.C.    B                E
But you talk like one of us
A            E                       B
Babe I think you know where you belong


[Solo]

This may not be 100% correct, feel free to contribute 
e|-----------------|
B|-----------------|
G|-----------------|
D|-6-4-2-----------|
A|-------4-2-------|
E|-----------4-2-0-|

e|---------------------------|---------------------------|
B|-5-5--5-5--5-5--5-5--5-5-5-|-5-5--5-5--5-5--5-5--5-5-5-|
G|---------------------------|---------------------------|
D|---------------------------|---------------------------|
A|---------------------------|---------------------------|
E|---------------------------|---------------------------|

e|-5-5--5-5--5-5--5-5--5-5-5-|-5-5--5-5--5-5--5-5--5-5-5-|
B|---------------------------|---------------------------|
G|---------------------------|---------------------------|
D|---------------------------|---------------------------|
A|---------------------------|---------------------------|
E|---------------------------|---------------------------|

e|---------------------------|---------------------------|
B|-4-4--4-4--4-4--4-4--4-4-4-|-4-4--4-4--4-4--4-4--4-4-4-|
G|---------------------------|---------------------------|
D|---------------------------|---------------------------|
A|---------------------------|---------------------------|
E|---------------------------|---------------------------|

e|---------------------------|---------------------------|
B|-5-5--5-5--5-5--5-5--5-5-5-|-5-5--5-5--5-5--5-5--5-5-5-|
G|---------------------------|---------------------------|
D|---------------------------|---------------------------|
A|---------------------------|---------------------------|
E|---------------------------|---------------------------|


[Bridge]

Not sure if it's guitar or bass playing over this but the main riff can be played here
e|--------------------------------------------------|--------------------------------------------------|
B|--------------------------------------------------|--------------------------------------------------|
G|--------------------------------------------------|--------------------------------------------------|
D|--------------------------------------------------|--------------------------6-6--6-6--7-7--7-6--4-2-|
A|------------------------------------7-7--7-6--4-2-|-0-0--0-0--4-4--4-4--4-6--------------------------|
E|-0-0--0-0--4-4--4-4--4-5--7-7--7-7----------------|--------------------------------------------------|

e|--------------------------------------------------|--------------------------------------------------|
B|--------------------------------------------------|--------------------------------------------------|
G|--------------------------------------------------|--------------------------------------------------|
D|-----------1-1--1-1--1-2--4-4--4-4--9-9--9-9--7-7-|-6-6--6-6-----------------------------------------|
A|-2-2--2-2-----------------------------------------|-----------7-7--7-7--4-4--2-2--2-2----------------|
E|--------------------------------------------------|------------------------------------0-0--0-0--0---|


[Chorus 3]

Guitar only

A                    E    
You look like one of them
N.C.    B                E  
But you talk like one of us
A                  E                  B
Everything they're telling you is wrong
A                    E    
You look like one of them
N.C.    B                E  
But you talk like one of us
A            E                       B
Babe I think you know where you belong


[Instrumental Solo]
(same rhythm as the chorus, played twice)

A E B E A E B (x2)


[Chorus 4]

A                    E    
You look like one of them
N.C.    B                E  
But you talk like one of us
A                  E                  B
Everything they're telling you is wrong
A                    E    
You look like one of them
N.C.    B                E  
But you talk like one of us
A            E                       B
Babe I think you know where you belong


[Outro]

(the first part of the main riff, played three times)

e|--------------------------------------------------|
B|--------------------------------------------------|
G|--------------------------------------------------|
D|--------------------------------------------------| 
A|------------------------------------7-7--7-6--4-2-|
E|-0-0--0-0--4-4--4-4--4-5--7-7--7-7----------------|(x3)

Then end with this

e|--------------------------------------------------|
B|--------------------------------------------------|
G|--------------------------------------------------|
D|--------------------------------------------------|
A|--------------------------------------------------|
E|-0-0--0-0--0-0--0-0--0-0--0-0--0-0--0-0--0-0--0-0-|
Suggest correction
Give kudos to tab author, rate the tab!
1 2 3 4 5
comments
print report bad tab
guest
You may want to rate the tab now too:
select rating
Wanna post a correction for this tab? Suggest correction