Oops, an error
Loading. Please wait.

Hunt chords

by day6
220 views 30 this week
no commentswrite comment
1 2 3 4 5
x 3
add to favorites
×
Save as Personal and add changes to this tab that will be seen only by you. Learn more ›
×
You can save this tab as Personal to edit and correct it or add notes. All changes will be seen only by you. Learn more »
launch autoscroll
font size
0
reset
transpose
0
reset
display chords
guitar tuner
edit
Autoscroll
slow
fast
+/-
esc
set tempo
stop
Strumming
There is no strumming pattern for this song yet. and get +5 IQ
[Intro]

E|------------------------------------------|
B|------------------------------------------|
G|------------------------------------------|
D|------------------------------------------|
A|------------------------------------------|
E|-0-3-4-5--0-3-4-5--0-3-4-5----------------|

[Verse 1]
      A           A        D         A          E      D    A    E
E|------------------------------------------------------------------------------|
B|------------------------------------------------------------------------------|
G|------------------------------------------------------------------------------|
D|------------------------------------------------------------------------------|
A|----------------------0-3-4-5-5-----------3-5-6-7-7--5-5----------------------|
E|-0-3-4-5-5--0-3-4-5-5-----------0-3-4-5-5----------------5-5--0-0-0-0-0-------|

A
sumanheun saramdeul saieseo
A
neoga siya ane deureoomyeon
     D
You know oh you know
                A
nan baro seolleyeo Ooh~
E                 D                    A      E
naega neol nohchil ireun jeoldaero eopseo no

[Verse 2]
      A           A        D         A          E      D    A    E
E|------------------------------------------------------------------------------|
B|------------------------------------------------------------------------------|
G|------------------------------------------------------------------------------|
D|------------------------------------------------------------------------------|
A|----------------------0-3-4-5-5-----------3-5-6-7-7--5-5----------------------|
E|-0-3-4-5-5--0-3-4-5-5-----------0-3-4-5-5----------------5-5--0-0-0-0-0-------|
          A
(Come on) neoui ape dagagaseo
A
sujubeun misoga boimyeon
D
You know uh uh uh you know
                  A
nan baro neol gajyeo Ooh~
E           D               A      E
girl I can make you feel alive

[Pre-Chorus]
A
(hanbeondo) neol chajeun ihuro
A
(amudo) neo malgon nugudo
A
(anboyeo) nae nune boineun geon
A
(You, you, you) baby eodi

[Chorus 1]
A                  G
gal saenggageun haji ma
            D             G
domangchil saenggakdo haji ma
           A     G
baby girl (ua ua)
                 D     G
neol sanyanghae (ua uu)
                    A
nan neol sanyanghae

[Chorus 2]
               G                D
Sweet girl oh sweet girl oh baby
              G              A
be ma girl be ma girl ma baby
               G                D
Sweet girl oh sweet girl oh baby
              G              A
be ma girl be ma girl ma baby

[Interlude]

E|-------------------|
B|-------------------|
G|-------------------|
D|-------------------|(4x)
A|-------------------|
E|-3p5-5-3p5-5-3-----|

[Verse 3]
      A           A        D         A          E      D    A    E
E|------------------------------------------------------------------------------|
B|------------------------------------------------------------------------------|
G|------------------------------------------------------------------------------|
D|------------------------------------------------------------------------------|
A|----------------------0-3-4-5-5-----------3-5-6-7-7--5-5----------------------|
E|-0-3-4-5-5--0-3-4-5-5-----------0-3-4-5-5----------------5-5--0-0-0-0-0-------|

A
amu mal eopsi neol chyeodabwa
A
neodo sogeuro neukkijanha
     D
You know uh uh uh you know
               A      E
neodo nal wonhae Ooh~
              D
ije geuman badadeuryeo
   A             E
babe you are mine (come on)

[Pre-Chorus]
A
(hanbeondo) neol chajeun ihuro
A
(amudo) neo malgon nugudo
A
(anboyeo) nae nune boineun geon
A
(You, you, you) baby eodi

[Chorus 1]
A                  G
gal saenggageun haji ma
            D             G
domangchil saenggakdo haji ma
           A     G
baby girl (ua ua)
                 D     G
neol sanyanghae (ua uu)
                    A
nan neol sanyanghae

[Chorus 2]
               G                D
Sweet girl oh sweet girl oh baby
              G              A
be ma girl be ma girl ma baby
               G                D
Sweet girl oh sweet girl oh baby
              G              A
be ma girl be ma girl ma baby

[Rap]
A                   G
mianhande ni ape seogiman hamyeon gaega dwae
 D                         G
neol nakka chaegi jeone nunbicceun baro maega dwae
   A                        G
meogisgam barabodeusi neol bomyeo chim heullyeo
     D                        G
jibeuro bonael saenggageun eopseoseo ilbureo
A
wo jamkkan swieossda gaja
G
deowo jaket jom beoseonohja
D
imi beoseuneun nohchyeosseo
D
igeoseun michyeosseo
G                                A
bijyeoni isseo boyeo oh my jesus
                 G
Yes good morning
                             D
heongkeureojin meorimajeodo geuri seksihani
            G
geureoni baby eodi

[Chorus 1]
A                  G
gal saenggageun haji ma
            D             G
domangchil saenggakdo haji ma
           A     G
baby girl (ua ua)
                 D     G
neol sanyanghae (ua uu)
                    A
nan neol sanyanghae

[Chorus 2]
               G                D
Sweet girl oh sweet girl oh baby
              G              A
be ma girl be ma girl ma baby
               G                D
Sweet girl oh sweet girl oh baby
              G              A
be ma girl be ma girl ma baby

            
            
Suggest correction
Creating personal tab
Creating personal tab
You can edit any tab online and save it as your Personal.

You can edit, replace or remove any tab part or add personal notes – all changes will be seen only by you.

Personal tabs can be accessed anytime from any device, even offline.
Learn more »
Give kudos to tab author, rate the tab!
1 2 3 4 5
comments
print report bad tab
guest
You may want to rate the tab now too:
select rating
Wanna post a correction for this tab? Suggest correction