Oops, an error
Loading. Please wait.

Fade Away Tab

1,848 views 1 this week
no commentswrite comment
1 2 3 4 5
2 more votes to show rating
add to favorites
launch autoscroll
font size
0
reset
how to read this tab
guitar tuner
Autoscroll
slow
fast
+/-
esc
set tempo
stop
Help us to improve Ultimate-Guitar.com Take our survey!
×
Author
intro:

Eb|--------------------------------------------||
Bb|--------------------------------------------||
Gb|7--------------7----------------------------||
Db|7----3----5----7----3----5------------------||
Ab|5----3----5----5----3----5------------------||
Db|-----3----5---------3----5------------------||

verse 1:

          Hey.......... don't wanna run no more. 

Eb|--------------------------------------------------||
Bb|--------------------------------------------------||
Gb|-------7-----------7------------------------------||
Db|----0--7--------0--7-----------------------------0||
Ab|1-3----5----1-3----5-------------------------1-3--||
Db|--------------------------------------------------||

   Hey........... must find an open door.

Eb|----------------------------------------------||
Bb|----------------------------------------------||
Gb|3------------3--------------------------------||
Db|3--------0---3----------------------------0---||
Ab|1----1-3-----1------------------------1-3-----||
Db|----------------------------------------------||

   Hey........... ask Him to step inside.

Eb|----------------------------------------------||
Bb|----------------------------------------------||
Gb|7------------7--------------------------------||
Db|7--------0---7--------------------------0-----||
Ab|5----1-3-----5----------------------1-3-------||
Db|----------------------------------------------||

   Hey........... untie me from this lie.

Eb|----------------------------------------------||
Bb|----------------------------------------------||
Gb|3------------3--------------------------------||
Db|3--------0---3----------------------------0---||
Ab|1----1-3-----1------------------------1-3-----||
Db|----------------------------------------------||

chorus:

   I don't wanna waste away, like i saw myself, fading yesterday.

Eb|--------------------------------------------------------------||
Bb|--------------------------------------------------------------||
Gb|--------------------------------------------------------------||
Db|0-----------------------3--------5----------------------------||
Ab|0-----------------------3--------5----------------------------||
Db|0-----------------------3--------5----------------------------||

   I don't wanna feel the shame...

Eb|--------------------------------------------------------------||
Bb|--------------------------------------------------------------||
Gb|--------------------------------------------------------------||
Db|0---------------------------3------------5------------8-------||
Ab|0---------------------------3------------5------------8-------||
Db|0---------------------------3------------5------------8-------||

   I don't wanna waste away, like i saw myself, fading yesterday.

Eb|--------------------------------------------------------------||
Bb|--------------------------------------------------------------||
Gb|--------------------------------------------------------------||
Db|0-----------------------3--------5----------------------------||
Ab|0-----------------------3--------5----------------------------||
Db|0-----------------------3--------5----------------------------||

   I don't wanna feel the pain...

Eb|--------------------------------------------------------------||
Bb|--------------------------------------------------------------||
Gb|--------------------------------------------------------------||
Db|0---------------------------3------------5------------8-------||
Ab|0---------------------------3------------5------------8-------||
Db|0---------------------------3------------5------------8-------||   

   I don't wanna waste away...

Eb|----------------------------------||
Bb|----------------------------------||
Gb|----------------------------------||
Db|0---------------------------------||
Ab|0-------------------------------0-||
Db|0---------------------------1-3---||



Eb|----------------------------------------------||
Bb|----------------------------------------------||
Gb|7-----------7-----------3-----------3---------||
Db|7-------0---7-------0---3-------0---3-------0-||
Ab|5---1-3-----5---1-3-----1---1-3-----1---1-3---||
Db|----------------------------------------------||

verse 2

   Hey........... walk on the broken floor.

Eb|-----------------------------------------------||
Bb|-----------------------------------------------||
Gb|7------------7---------------------------------||
Db|7---------0--7-------------------------------0-||
Ab|5-----1-3----5---------------------------1-3---||
Db|-----------------------------------------------||

   Hey........... find what I lost before.

Eb|----------------------------------------------||
Bb|----------------------------------------------||
Gb|3------------3--------------------------------||
Db|3--------0---3----------------------------0---||
Ab|1----1-3-----1------------------------1-3-----||
Db|----------------------------------------------||

   Hey........... must change the shape I'm in.

Eb|----------------------------------------------------||
Bb|----------------------------------------------------||
Gb|7------------7--------------------------------------||
Db|7--------0---7--------------------------------0-----||
Ab|5----1-3-----5----------------------------1-3-------||
Db|----------------------------------------------------||

   Hey........... never go back again.

Eb|----------------------------------------------||
Bb|----------------------------------------------||
Gb|3------------3--------------------------------||
Db|3--------0---3----------------------------0---||
Ab|1----1-3-----1------------------------1-3-----||
Db|----------------------------------------------||

chorus:

   I don't wanna waste away, like i saw myself, fading yesterday.

Eb|--------------------------------------------------------------||
Bb|--------------------------------------------------------------||
Gb|--------------------------------------------------------------||
Db|0-----------------------3--------5----------------------------||
Ab|0-----------------------3--------5----------------------------||
Db|0-----------------------3--------5----------------------------||

   I don't wanna feel the shame...

Eb|--------------------------------------------------------------||
Bb|--------------------------------------------------------------||
Gb|--------------------------------------------------------------||
Db|0---------------------------3------------5------------8-------||
Ab|0---------------------------3------------5------------8-------||
Db|0---------------------------3------------5------------8-------||

   I don't wanna waste away, like i saw myself, fading yesterday.

Eb|--------------------------------------------------------------||
Bb|--------------------------------------------------------------||
Gb|--------------------------------------------------------------||
Db|0-----------------------3--------5----------------------------||
Ab|0-----------------------3--------5----------------------------||
Db|0-----------------------3--------5----------------------------||

   I don't wanna feel the pain...

Eb|--------------------------------------------------------------||
Bb|--------------------------------------------------------------||
Gb|--------------------------------------------------------------||
Db|0---------------------------3------------5--------------------||
Ab|0---------------------------3------------5--------------------||
Db|0---------------------------3------------5--------------------|| 

bridge:

   I'm coming to know, I'm coming to see You now. (See You now.)

Eb|---------------------------------------------------------------||
Bb|---------------------------------------------------------------||
Gb|---------------------------------------------------------------||
Db|8---------------------------------5----------------------------||
Ab|8---------------------------------5----------------------------||
Db|8---------------------------------5----------------------------||

   I'm coming to grow, I'm coming to see You now, believe You now.

Eb|---------------------------------------------------------------||
Bb|---------------------------------------------------------------||
Gb|---------------------------------------------------------------||
Db|8---------------------------------5----------------------------||
Ab|8---------------------------------5----------------------------||
Db|8---------------------------------5----------------------------||

   I don't wanna waste away. (no chords)
   I don't wanna waste away. (no chords)
   I don't wanna waste away. (no chords)

   I don't wanna waste away.

Eb|------------------------------------------------||
Bb|------------------------------------------------||
Gb|5-----------------------------------------------||
Db|5-----------------------------------------------||
Ab|3-----------------------------------------------||
Db|------------------------------------------------||

chorus:

   I don't wanna waste away, like i saw myself, fading yesterday.

Eb|--------------------------------------------------------------||
Bb|--------------------------------------------------------------||
Gb|--------------------------------------------------------------||
Db|0-----------------------3--------5----------------------------||
Ab|0-----------------------3--------5----------------------------||
Db|0-----------------------3--------5----------------------------||

   I don't wanna feel the shame...

Eb|--------------------------------------------------------------||
Bb|--------------------------------------------------------------||
Gb|--------------------------------------------------------------||
Db|0---------------------------3------------5------------8-------||
Ab|0---------------------------3------------5------------8-------||
Db|0---------------------------3------------5------------8-------||

   I don't wanna waste away, like i saw myself, fading yesterday.

Eb|--------------------------------------------------------------||
Bb|--------------------------------------------------------------||
Gb|--------------------------------------------------------------||
Db|0-----------------------3--------5----------------------------||
Ab|0-----------------------3--------5----------------------------||
Db|0-----------------------3--------5----------------------------||

   I don't wanna feel the pain...

Eb|--------------------------------------------------------------||
Bb|--------------------------------------------------------------||
Gb|--------------------------------------------------------------||
Db|0---------------------------3------------5------------8-------||
Ab|0---------------------------3------------5------------8-------||
Db|0---------------------------3------------5------------8-------|| 

   I don't wanna waste away, like i saw myself, fading yesterday.

Eb|--------------------------------------------------------------||
Bb|--------------------------------------------------------------||
Gb|--------------------------------------------------------------||
Db|0-----------------------3--------5----------------------------||
Ab|0-----------------------3--------5----------------------------||
Db|0-----------------------3--------5----------------------------||

   I don't wanna feel the shame...

Eb|--------------------------------------------------------------||
Bb|--------------------------------------------------------------||
Gb|--------------------------------------------------------------||
Db|0---------------------------3------------5------------8-------||
Ab|0---------------------------3------------5------------8-------||
Db|0---------------------------3------------5------------8-------||

   I don't wanna waste away, like i saw myself, fading yesterday.

Eb|--------------------------------------------------------------||
Bb|--------------------------------------------------------------||
Gb|--------------------------------------------------------------||
Db|0-----------------------3--------5----------------------------||
Ab|0-----------------------3--------5----------------------------||
Db|0-----------------------3--------5----------------------------||

   I don't wanna feel the pain...

Eb|--------------------------------------------------------------||
Bb|--------------------------------------------------------------||
Gb|--------------------------------------------------------------||
Db|0---------------------------3------------5------------8-------||
Ab|0---------------------------3------------5------------8-------||
Db|0---------------------------3------------5------------8-------|| 

   I don't wanna waste away...

Eb|----------------------------||
Bb|----------------------------||
Gb|----------------------------||
Db|0---------------------------||
Ab|0---------------------------||
Db|0---------------------------||
Suggest correction
Give kudos to tab author, rate the tab!
1 2 3 4 5
comments
print report bad tab
guest
You may want to rate the tab now too:
select rating
Wanna post a correction for this tab? Suggest correction