Oops, an error
Loading. Please wait.

I Am The Door Tab

version 1
version 1

Whole song

517 views 1 this week
no commentswrite comment
1 2 3 4 5
please rate
add to favorites
launch autoscroll
font size
0
reset
how to read this tab
guitar tuner
Autoscroll
slow
fast
+/-
esc
set tempo
stop
Help us to improve Ultimate-Guitar.com Take our survey!
×
Band- Day Of Fire
Song- I Am The Door

^ - up stroke
intro/verse
e--------------------------------------------------------------------------|
B--------------------------------------------------------------------------|
G--------------------------------------------------------------------------|
D-x-x-9--9-9-x-x-9-9-x-9-7-8-9-x-x-9--9-9-x-x-9-9-x-9-7-10-9---------------|
A-x-x-9--9-9-x-x-9-9-x-9-7-8-9-x-x-9--9-9-x-x-9-9-x-9-7-10-9---------------|
D-x-x-9--9-9-x-x-9-9-x-9-7-8-9-x-x-9--9-9-x-x-9-9-x-9-7-10-9---------------|
    ^      ^   ^   ^   ^   ^     ^      ^   ^   ^   ^   ^
verse...................... chorus riff1
-----------------------------|---------------------------------------------|
B----------------------------|---------------------------------------------|
G----------------------------|---------------------------------------------|
D--x-x-9--9-9-x-x-9-9-x-9-9-x|2-let ring-------2222-5555-9999-7777---------|
A--x-x-9--9-9-x-x-9-9-x-9-9-x|2----------xxxx--2222-5555-9999-7777---------|
D--x-x-9--9-9-x-x-9-9-x-9-9-x|2----------xxxx--2222-5555-9999-7777---------|

chorus riff2/bridge
play these chords under the lead riff (havent tabbed...yet)
e----------------------------------|
B----------------------------------|
G----------------------------------|
D-5-5-5-5-5-5-5-5-2-2-2-2-2-2-2-2--|
A-5-5-5-5-5-5-5-5-2-2-2-2-2-2-2-2--|repeat a few times then play back to intro
D-5-5-5-5-5-5-5-5-2-2-2-2-2-2-2-2--|

end of bridge
e---------------------------------------------------------------------------|
B---------------------------------------------------------------------------|
G---------------------------------------------------------------------------|
D-7-7-7-7-9-9-9-9-----------------------------------------------------------|
A-7-7-7-7-9-9-9-9-----------------------------------------------------------|
D-7-7-7-7-9-9-9-9-----------------------------------------------------------|
Suggest correction
Give kudos to tab author, rate the tab!
1 2 3 4 5
comments
print report bad tab
guest
You may want to rate the tab now too:
select rating
Please do not post tabs as comments. Select "correction" instead!