Oops, an error
Loading. Please wait.

Jacobs Dream Tab

version 1
version 1

Whole song

1,687 views 1 this week
1 commentread comment
1 2 3 4 5
2 more votes to show rating
add to favorites
launch autoscroll
font size
0
reset
how to read this tab
guitar tuner
Autoscroll
slow
fast
+/-
esc
set tempo
stop
Help us to improve Ultimate-Guitar.com Take our survey!
×
Author
Day of Fire (2004)
Jacob's Dream Tab

Intro (guitar 1) (0:00)
e|-----------------|
B|-----------------|
G|-5-5-x3-3-3-3333-|
D|-5-3-x3-3-3-3333-|
A|-3-3-x1-1-1-1111-|
E|-----------------|

Intro (guitar 2) (0:06)
e|-11-10~------|
B|-------13-13-|
G|-------------|
D|-------------|
A|-------------|
E|-------------|

Verse (guitar 1) (0:13)
e|-----------------|
B|-----------------|
G|-5-5-x3-3-3-3333-|
D|-5-3-x3-3-3-3333-|
A|-3-3-x1-1-1-1111-|
E|-----------------|

Verse (guitar 2) (0:13)
e|-11-10~------|
B|-------13-13-|
G|-------------|
D|-------------|
A|-------------|
E|-------------|

Pre-Chorus (guitar 3) (0:35)		
e|---------------------------------------------------|
B|---------------------------------------------------|
G|-xxx-3/5-5-5-5/8-8-8-8/10-10-10-10/12-12-12-12-----|
D|-xxx-x-x-x-x-x-x-x-x-x-x--x--x--x--x--x--x--x------|
A|-xxx-1/3-3-3-3/6-6-6-6/8--8--8—-8/-10-10-10-10-----|
E|---------------------------------------------------|


Chorus (guitar 1) (0:39)	
e|----------------------------|
B|----------------------------|
G|-5-3------------------------|
D|-5-3-6-6-6-6-6-6-6-6-6-6----|
A|-3-1-6-6-6-6-6-6-6-6-6-6----|
E|-----4-4-4-4-4-4-4-4-4-4----|

Chorus (guitar 2) (0:40)
e|-11-11-11-11h10-------|
B|----------------13-13~|
G|----------------------|
D|----------------------|
A|----------------------|
E|----------------------|
	
Verse (guitar 1) (0:51)
e|-----------------|
B|-----------------|
G|-5-5-x3-3-3-3333-|
D|-5-3-x3-3-3-3333-|
A|-3-3-x1-1-1-1111-|
E|-----------------|

Verse (guitar 2) (0:51)
e|-11-10~------|
B|-------13-13-|
G|-------------|
D|-------------|
A|-------------|
E|-------------|

Pre-Chorus (guitar 3) (1:15)		
e|-------------------------------------------|
B|-------------------------------------------|
G|-3/5-5-5-5/8-8-8-8/10-10-10-10/12-12-12-12-|
D|-x-x-x-x-x-x-x-x-x-x--x--x--x--x--x--x--x--|
A|-1/3-3-3-3/6-6-6-6/8--8--8—-8/-10-10-10-10-|
E|-------------------------------------------|

Chorus 2 (guitar 1) (1:18)
e|----------------------------|  2nd time through end on e|---|
B|----------------------------|				 B|---|	
G|-5-3------------------------|				 G|-5-|
D|-5-3-6-6-6-6-6-6-6-6-6-6----| x2			 D|-5-|
A|-3-1-6-6-6-6-6-6-6-6-6-6----|				 A|-3-|
E|-----4-4-4-4-4-4-4-4-4-4----|				 E|---|

Chorus 2 (guitar 2) (1:19)
e|-11-11-11-11-10-------|
B|----------------13-13~|
G|----------------------|
D|----------------------|
A|----------------------|
E|----------------------|

(there's background guitar here, but I'm not sure how
 it goes so I left it out)

Break/Solo (guitar 2) (1:49)
e|---8-8/10~~~-15-15-15-15-15-15-15-15-15-15-15-15-15-15-15h16p13-|
B|-8--------------------------------------------------------------|
G|----------------------------------------------------------------|
D|----------------------------------------------------------------| 
A|----------------------------------------------------------------|
E|----------------------------------------------------------------|

e|-15-15-15-15-15h16p13h15-15-15-15-15-15/20-20-20-20-------------------|
B|----------------------------------------------------20-20-20-18-18-18-|
G|----------------------------------------------------------------------|
D|----------------------------------------------------------------------| 
A|----------------------------------------------------------------------|
E|----------------------------------------------------------------------|

e|-------------------|
B|-16-16-16-15-15-15-|
G|-------------------|
D|-------------------| (there is a LOT missing right here) 
A|-------------------|
E|-------------------|

Chorus (guitar 1) (2:32)
e|-------------------------|     
B|-------------------------|				 	
G|-5-3---------------------|				 
D|-5-3-6-6-6-6-6-6-6-6-6-6-|				 
A|-3-1-6-6-6-6-6-6-6-6-6-6-|				 
E|-----4-4-4-4-4-4-4-4-4-4-|				 

Chorus (guitar 2) (2:34)
e|-11-11-11-11p10---------11-11-11-11p10-----------------------|
B|----------------13-13------------------13-13--(missing part)-|
G|-------------------------------------------------------------|
D|-------------------------------------------------------------| 
A|-------------------------------------------------------------|
E|-------------------------------------------------------------|

e|-11-11-11-11p10-------|
B|----------------13-13-|
G|----------------------|
D|----------------------| 
A|----------------------|
E|----------------------|
	
Ending (guitar 2) (2:58)
e|-11-10-------11-10-11h10----------10-11-13-15-15-15----------------|
B|-------13-13-------------13h11-13----------16-16-16-(more missing)-|
G|-------------------------------------------------------------------|
D|-------------------------------------------------------------------| 
A|-------------------------------------------------------------------|
E|-------------------------------------------------------------------|


Ending (guitar 1) (3:04)
e|-----------------|
B|-----------------|
G|-5-5-x3-3-3-3333-|
D|-5-3-x3-3-3-3333-| (last time play Bb5 once)
A|-3-3-x1-1-1-1111-|
E|-----------------|

I tried really hard to get this song
down for you guys, sorry about the missing 
parts, they were really fast!!

God Bless,
Shane
Suggest correction
Give kudos to tab author, rate the tab!
1 2 3 4 5
comments
print report bad tab
1 comment total.
0 reply
Aethen 41 Aug 18, 2007 11:23 PM

your half a step up from the real notes

guest
You may want to rate the tab now too:
select rating
Wanna post a correction for this tab? Suggest correction