Oops, an error
Loading. Please wait.

Jacobs Dream Tab

version 2
version 2

Whole song

785 views 1 this week
no commentswrite comment
1 2 3 4 5
please rate
add to favorites
launch autoscroll
font size
0
reset
how to read this tab
guitar tuner
Tab Pro tools
  • play this tab
  • loop segment
  • change instrument
  • show fretboard
  • metronome
×
Best way to learn
"Jacobs Dream"
Autoscroll
slow
fast
+/-
esc
set tempo
stop
Gu1tarist0822... ibanez RG350DX
tuning: EADGBe

this is my first tab... enjoy!
Intro...
      Gtr. 1 w/heavy dist.
e------------------------------------I
B------------------------------------I
G---10----8----x--3----3--3--3-3-3-3-I   
D---8-----8----x--3----3--3--3-3-3-3-I   (2x's)
A---6-----6----x--1----1--1--1-1-1-1-I
E--------------x---------------------I
                                      then...
Rest of intro & Verse
       Gtr. 1 w/heavy dist.
e------------------------------------I
B------------------------------------I
G---10----8----x--3----3--3--3-3-3-3-I
D---8-----8----x--3----3--3--3-3-3-3-I
A---6-----6----x--1----1--1--1-1-1-1-I
E--------------x---------------------I
                                     I
    Gtr. 2 (clean w/chorus & delay)  I
e---11----10~~~~~-----------------10-I
B------------------------------13----I
G------------------------------------I
D------------------------------------I
A------------------------------------I
E------------------------------------I

**Pre Chorus**  (Gtr. 1 plays verse riff)
       Gtr. 2 (w/dist)
e------------------------------------I
B------------------------------------I
G--xx-3/5555/8888/10101010/121212----I
D--xx-x-xxxx-xxxx-x-x-x-x--x-x-x-----I
A--xx-1/3333/6666/8-8-8-8-/101010----I
E--xx--------------------------------I

Chorus
       Gtr. 1 (w/heavy dist.)
e------------------------------------I
B------------------------------------I
G--5--3--1---1-1--1--1-1-3--3--3--3--I
D--5--3--1---1-1--1--1-1-1--1--1--1--I
A--3--1--1---1-1--1--1-1-1--1--1--1--I
E--------4---4-4--4--4-4-4--4--4--4--I
                                     I
    Gtr. 2 (clean w/chorus & delay)  I
e-11-10----11-11T15p11p10------------I
B-------11~--------------13-13~~~----I
G------------------------------------I
D------------------------------------I
A------------------------------------I
E------------------------------------I


****verse II****

Pre-ChorusII
      Gtr. 2 (w/dist.)
e------------------------------------I
B------------------------------------I
G----5/8888/10101010/12-12///--------I
D----x-xxxx-x-x-x-x--x--x-///--------I
A----3/6666/8-8-8-8-/10-10///--------I
E------------------------------------I

****Chorus II****

Post Chorus II
     Gtr. 1 (w/heavy dist.)
e------------------------------------I
B------------------------------------I
G--1--1--1--1--1-1-1---5-(hold)------I
D--1--1--1--1--1-1-1---5-(hold)------I
A--1--1--1--1--1-1-1---3-(hold)------I
E--4--4--4--4--4-4-4---3-(hold)------I

break/solo
     Gtr. 1 (clean--very faintly play...)
e--8--8--8--8--8--8---8--8--8--8--8---8--8--8--8--8---8---8---I
B--8--8--8--8--8--8---8--8--8--8--8---8--8--8--8--8---8---8---I
G--x--x--x--x--x--x---x--x--x--x--x---x--x--x--x--x---x---x---I
D-10--10-10-10-10-10--10-10-10-10-10--10-10-10-10-10--10--10--I
A-------------------------------------------------------------I
E-------------------------------------------------------------I

**solo**
      Gtr. 2 (w/distortion)
e------8-8/10-------15--15-15-15--15-15-15--15-15-15-15h16-13--15-I
B----8------------------------------------------------------------I
G-----------------------------------------------------------------I
D-----------------------------------------------------------------I
A-----------------------------------------------------------------I
E-----------------------------------------------------------------I

e--15--15-15--15h16p13h15--15-15-15-15/20~~~~~~~~~~~~~~~~~~~~~~~~-I
B-----------------------------------------------------------------I
G-----------------------------------------------------------------I
D-----------------------------------------------------------------I
A-----------------------------------------------------------------I
E-----------------------------------------------------------------I
                                                     tremelo......
e--15~~13~~-------------------------------13~---13~~15~~1615161516151315~~-I
B----------16~15~16151615~~13~15~16~15~16----16~---------------------------I
G--------------------------------------------------------------------------I
D--------------------------------------------------------------------------I
A--------------------------------------------------------------------------I
E--------------------------------------------------------------------------I
                                                                           I
Gtr. 1 (fingerpick w/distortion)                                           I
e--------------------------------------------------------------------------I
B-------------------------------------------------------------6---8--------I
G------3~~~-------------------------------------------------5---5----5-----I
D------3~~~-----------------------------------------------8----------------I
A------1~~~----------------------------------------------------------------I
E------1~~~----------------------------------------------------------------I
                                                 let notes ring------> 
    
e--------------------------------------------------------------------------I
B--13~~15~16~~~15h16p15p13p15~~~13~~---------------------------------------I
G-----------------------------------15~~13~~12h13p10~~~~~12--12-12--12-12--I
D--------------------------------------------------------------------------I
A--------------------------------------------------------------------------I
E--------------------------------------------------------------------------I
                                                                           I
                                                                           I
e----------------------------------6---------------------------6--8--------I
B-------------------------------------6--------8~~-------------------8-----I
G-------------------------------5--------------5~~-------------------------I
D-----------------------------8----------------8~~-------------------------I
A--------------------------------------------------------------------------I
E--------------------------------------------------------------------------I


e-------------------------------------------------------20--20-20-20-20-20-I
B-------------------------------------------13--15--16~~-------------------I
G-12-12h13p10h12-121212h13p10h12~13~151315~~-------------------------------I
D--------------------------------------------------------------------------I
A--------------------------------------------------------------------------I
E--------------------------------------------------------------------------I
                                                                           I
                                                                           I
e-6---8---6---8---6---8---6---8---6---8---6---8--6--8-8-8/20---20-20-20-20-I
B-------8-------8-------8-------8-------8------8---------------------------I
G--------------------------------------------------------------------------I
D--------------------------------------------------------------------------I
A--------------------------------------------------------------------------I
E--------------------------------------------------------------------------I

**Chorus**  (2x's)
 
**outro**

acoustic guitar
Chords:   
    G2        G         Cdim
e---0---------0---------0-----I
B---3---------3---------0-----I
G---2---------0---------0-----I   2x's  (listen for strumming pattern)
D---0---------0---------2-----I   
A---x---------2---------3-----I
E---3---------3---------------I

     
then you play the intro rhythym riff to close out the song and the lead 
guitar plays something that i don't feel like drawing out for you guys 
because it's 1am and I am tired. it is pretty similar to the first solo, but
 it is played clean, not with distortion. i know those arent the names of 
the chords in the outro but i dont know music late well i just have a good 
ear.. look at the key below to figure out my symbols... have fun!! this is a
 great song.. God Bless!
Jesus Loves you!! Niteynite


key....
~~----------------tremelo picking (pick really fast on one note)
T----------------- Tap (hammer on with picking hand)
p----------------- pull-off
h----------------- hammer-on
/----------------- slide
// (or more)------ fading slide (slide down the neck with no particular aim)
                                (for a new note.. gives it a fading sound  )
x----------------- muted note

    

please comment... to give feedback or to give me a music lesson on chords...
 or both.. or to give me a million dollars to pay my college tuition!! 
woohoo.. man im tired.. u can tell cuz im rambling for no reason.. lol.. im 
crazy!



comments
We did not receive enough feedback on this tab! Please rate:
print report bad tab
1 2 3 4 5
I want to post or [tab]
guest
You may want to rate the tab now too:
select rating
Please do not post tabs as comments. Select "correction" instead!