Oops, an error
Loading. Please wait.

Love Bass Tab

243 views 1 this week
no commentswrite comment
1 2 3 4 5
3 more votes to show rating
add to favorites
launch autoscroll
font size
0
reset
guitar tuner
Autoscroll
slow
fast
+/-
esc
set tempo
stop
Help us to improve Ultimate-Guitar.com Take our survey!
×
Author
Difficulty
intermediate
Standard tuning - 5-string
                                                                          x2
| |----------------------------------------------------------------------| |
|o|----------------------------------------------------------------------|o|
| |---7---7---7-10----7---7---7-10----7---7---7-10----13p12---13p12---10~| |
|o|-8---8---8-------8---8---8-------8---8---8-------0-------0-------0----|o|
| |----------------------------------------------------------------------| |

|-----------------------------------------------------------------|
|-----------------------------------------------------------------|
|-----------------------------------------------------------------|
|-----------------------------------------------------------------|
|-5-5-5-5-5-5-5-5-5-5-5-5-5-5-5-5-1-1-1-1-1-1-1-1-1-1-1-1-1-1-1-1-|
                                                                   
|-----------------------------------------------------------------|
|-----------------------------------------------------------------|
|-----------------------------------------------------------------|
|-----------------------------------------------------------------|
|-5-5-5-5-5-5-5-5-5-5-5-5-5-5-5-5-1-1-1-1-1-1-1-1-3-3-3-3-3-3-3/5-|

|-----------------------------------------------------------------|
|-----------------------------------------------------------------|
|-7-7-7-7-7-7-7-7-7-7-7-7-7-7-7-7-3-3-3-3-3-3-3-3-3-3-3-3-3-3-3-3-|
|-----------------------------------------------------------------|
|-----------------------------------------------------------------|

|-----------------------------------------------------------------|
|-----------------------------------------------------------------|
|-7-7-7-7-7-7-7-7-7-7-7-7-7-7-7-7-3-3-3-3-3-3-3-3-5-5-5-5-5-5-5/7-|
|-----------------------------------------------------------------|
|-----------------------------------------------------------------|

|---------------------------------------------------------------|
|---------------------------------------------------------------|
|7-x-10-10-x-------10-10h12-x-7-7-x-10-10-x-------10-10h12-10-7-|
|------------8-8-x--------------------------8-8-x---------------|
|---------------------------------------------------------------|

|--------------------------------------------------------------------|
|--------------------------------------------------------------------|
|--------------------------------------------------------------------|
|-7-x-10-10-x-------10-10h12-x-7-7-x-10-10-x-12-12-12-12-12-12-12-12-|
|-------------8-8-x--------------------------------------------------|
                                                                          
|----------------------------------------------------------------------|
|----------------------------------------------------------------------|
|---7---7---7-10----7---7---7-10----7---7---7-10----13p12---13p12---10~|
|-8---8---8-------8---8---8-------8---8---8-------0-------0-------0----|
|----------------------------------------------------------------------|

|-----------------------------------------------------------------|
|-----------------------------------------------------------------|
|-----------------------------------------------------------------|
|-----------------------------------------------------------------|
|-5-5-5-5-5-5-5-5-5-5-5-5-5-5-5-5-1-1-1-1-1-1-1-1-1-1-1-1-1-1-1-1-|
                                                                   
|-----------------------------------------------------------------|
|-----------------------------------------------------------------|
|-----------------------------------------------------------------|
|-----------------------------------------------------------------|
|-5-5-5-5-5-5-5-5-5-5-5-5-5-5-5-5-1-1-1-1-1-1-1-1-3-3-3-3-3-3-3/5-|

|-----------------------------------------------------------------|
|-----------------------------------------------------------------|
|-7-7-7-7-7-7-7-7-7-7-7-7-7-7-7-7-3-3-3-3-3-3-3-3-3-3-3-3-3-3-3-3-|
|-----------------------------------------------------------------|
|-----------------------------------------------------------------|

|-----------------------------------------------------------------|
|-----------------------------------------------------------------|
|-7-7-7-7-7-7-7-7-7-7-7-7-7-7-7-7-3-3-3-3-3-3-3-3-5-5-5-5-5-5-5/7-|
|-----------------------------------------------------------------|
|-----------------------------------------------------------------|
                                                                   x3
| |---------------------------------------------------------------| |
|o|---------------------------------------------------------------|o|
| |7-x-10-10-x-------10-10h12-x-7-7-x-10-10-x-------10-10h12-10-7-| |
|o|------------8-8-x--------------------------8-8-x---------------|o|
| |---------------------------------------------------------------| |

|--------------------------------------------------------------------|
|--------------------------------------------------------------------|
|--------------------------------------------------------------------|
|-7-x-10-10-x-------10-10h12-x-7-7-x-10-10-x-12-12-12-12-12-12-12-12-|
|-------------8-8-x--------------------------------------------------|
                                                            x2
| |--------------------------------------------------------| |
|o|--------------------------------------------------------|o|
| |-7-x-7-7-x-7-7-x-7h8h9h10--10--10-10-10-9--9-9--9-9-9-9-| |
|o|--------------------------------------------------------|o|
| |--------------------------------------------------------| |

|-------------------------------------------------------|
|-------------------------------------------------------|
|-7--7--7--7--7--7--7h8h9h10--10--10-10-10-9--9-9--5~~~-|
|-------------------------------------------------------|
|-------------------------------------------------------|

Short pause

                                                                   x3
| |---------------------------------------------------------------| |
|o|---------------------------------------------------------------|o|
| |7-x-10-10-x-------10-10h12-x-7-7-x-10-10-x-------10-10h12-10-7-| |
|o|------------8-8-x--------------------------8-8-x---------------|o|
| |---------------------------------------------------------------| |

|--------------------------------------------------------------------|
|--------------------------------------------------------------------|
|--------------------------------------------------------------------|
|-7-x-10-10-x-------10-10h12-x-7-7-x-10-10-x-12-12-12-12-12-12-12-12-|
|-------------8-8-x--------------------------------------------------|

|----------------------------------------------------------------|
|----------------------------------------------------------------|
|---7---7---7-10----7---7---7-10----7---7---7-10----7---7---7-10-|
|-8---8---8-------8---8---8-------8---8---8-------8---8---8------|
|----------------------------------------------------------------|

|-------------------------------------------------------------------|
|-------------------------------------------------------------------|
|---7---7---7-10----7---7---7-10----7---7---7-10----13p12---13p10~~~|
|-8---8---8-------8---8---8-------8---8---8-------0-------0---------|
|-------------------------------------------------------------------|

___
End
Suggest correction
Give kudos to tab author, rate the tab!
1 2 3 4 5
comments
print report bad tab
guest
You may want to rate the tab now too:
select rating
Wanna post a correction for this tab? Suggest correction