Oops, an error
Loading. Please wait.

Rain Song Tab

version 1
version 1

Whole song

5,107 views 6 this week
4 commentsread comments
1 2 3 4 5
please rate
add to favorites
launch autoscroll
font size
0
reset
how to read this tab
guitar tuner
Autoscroll
slow
fast
+/-
esc
set tempo
stop
Help us to improve Ultimate-Guitar.com Take our survey!
×
Band- Day Of Fire
Song- Rain Song

Tune 1/2 Step Down

Intro: (Guitar 1 - Harmonics)         (Guitar 2 - Strum)
                                         E     D
e-------------------------(12)--      e--0--0--2--|
B-----------(7)-----------------      B--0--0--3--|
G---------------(7)------------- 6x   G--0--0--2--|
D-------------------(5)---------      D--2--2--0--|
A------(7)----------------------      A--2--2-----|
E--(7)--------------------------      E--0--0-----|

Verse: (Gutar 1 - Harmonics)  (Guitar 2 - Strum)
                                 E     D
e-----------(12)--            e--0--0--2--|
B-----------------            B--0--0--3--|
G------(7)-------- 8x         G--0--0--2--|
D--(5)------------            D--2--2--0--|
A-----------------            A--2--2-----|
E-----------------            E--0--0-----|

Chorus:
   E     G     A     C
e-----------------------|
B-----------------------|
G--------------2-----5--|
D--2-----5-----2-----5--|
A--2-----5-----0-----3--|
E--0-----3--------------|

Verse 2: Same as Verse 1

Chorus:^

Bridge:
   A     C     E     A     G
e-----------------------------|
B-----------------------------|
G--2-----5-----5-----2--------|
D--2-----5-----5-----2-----5--|
A--0-----3-----7-----0-----5--|
E--------------------------3--|

Bridge 2:(Piano Tabbed to Guitar)
   E                                                      E     D
e-----------------------------     e-----------(12)--  e--0--0--2--|
B-----------------------------     B-----------------  B--0--0--3--|
G----------------------------- 2x  G------(7)--------  G--0--0--2--|
D------4---5r4---0-----2---4--Then D--(5)------------  D--2--2--0--|
A----2---2-----2--------------     A-----------------  A--2--2-----|
E--0--------------------------     E-----------------  E--0--0-----|

Chorus:^  3x

Verse:(Music Only)

Ending: (Intro Harmonics)
Suggest correction
Give kudos to tab author, rate the tab!
1 2 3 4 5
comments
print report bad tab
4 comments total. Showing first comments.
0 reply
amy_09 52 wrote on April 27 2006, 11:57 pm

Hey, good work! Just a couple things, and they're both minor: in Bridge 1, the chord you marked E is actually C in a different place, though I'm sure you've found that. Also, and this is just my preference - switch to overdrive for the chorus. Sounds very cool.

But yeah, mainly I just wanted to tell ya good job on this one. A.

0 reply
amy_09 52 wrote on April 29 2006, 12:53 am

Now I need to correct myself. You do actually play an E chord there, but the one you had tabbed was a C chord. That's all.

0 reply
amy_09 52 wrote on May 2 2006, 12:08 am

again just something to add! if you play
----
----
--9-
--9-
--7-
----

you get the E chord.

guest
You may want to rate the tab now too:
select rating
Please do not post tabs as comments. Select "correction" instead!