Oops, an error
Loading. Please wait.

Run Bass Tab

version 1
version 1

Whole song

Interactive

557 views 1 this week
no commentswrite comment
1 2 3 4 5
please rate
add to favorites
launch autoscroll
font size
0
reset
guitar tuner
Autoscroll
slow
fast
+/-
esc
set tempo
stop
Help us to improve Ultimate-Guitar.com Take our survey!
×
Author
Tuning
SK8nBASS 2,439
D A D G B E
-----------------------------------------------------------------------------
                           Run - Day of Fire
-----------------------------------------------------------------------------

Tuning: Drop D

Intro
G|-----------|
D|-----------| x3
A|-----------|
D|--0-0-1-3--|

G|---------------------|     |------------|
D|---------------------| x3  |------------|
A|--------------1-1-1--|     |------------|
D|--0-0-1-3-0----------|     |--4-3--3-1--|

G|--------------------|     |------------|
D|--------------------| x3  |------------|
A|-------------1-1-1--|     |------------|
D|--0-0-1-3-0---------|     |--4-3--3-1--|

Verse
~Rest~
G|---------------------------------------------------------|
D|---------------------------------------------------------| 
A|---------------------------------------------------------|
D|--4-3--3-1----0-0-1-3----0-0-1-3----0-0-1-3----4-3--3-1--|

Chorus
G|-------------------------------------------------------------|
D|-------------------------------------------------------------| x2
A|--3-3-3-2-1-1-1--------3-3-3-3-3-3-3-1-1-1----------5-3-3-3--|
D|----------------1--1-1---------------------1-1--1-1----------|

Pre-Verse
G|-----------|
D|-----------|
A|-----------|
D|--1-1-3-1--|

Verse
G|----------------------|    |------------|
D|----------------------| x3 |------------|
A|----------------------|    |------------|
D|--0-0-1-3-0-10-10-10--|    |--4-3--3-1--|

G|----------------------|    |------------|
D|----------------------| x3 |------------|
A|----------------------|    |------------|
D|--0-0-1-3-0-10-10-10--|    |--4-3--3-1--|

Chorus
G|-------------------------------------------------------------|
D|-------------------------------------------------------------| x2
A|--3-3-3-2-1-1-1--------3-3-3-3-3-3-3-1-1-1----------5-3-3-3--|
D|----------------1--1-1---------------------1-1--1-1----------|

Guitar Solo
G|-----------------|
D|-----------------| x3
A|----------1-1-1--|
D|--0-0-1-3--------|

G|------------|
D|------------|
A|------------| 
D|--4-3--3-1--|

G|-----------------|
D|-----------------| x3
A|----------1-1-1--|
D|--0-0-1-3--------|

G|------------|
D|------------|
A|------------| 
D|--4-3--3-1--|

G|-----------|
D|-----------| Repeat till chorus
A|-----------|
D|--0-0-1-3--|

Chorus
G|-------------------------------------------------------------|
D|-------------------------------------------------------------| x4
A|--3-3-3-2-1-1-1--------3-3-3-3-3-3-3-1-1-1----------5-3-3-3--|
D|----------------1--1-1---------------------1-1--1-1----------|

Ending
G|-------------|
D|-------------|
A|--3-3-3-2-1--|
D|-------------|


| /  slide up
| \  slide down
| h  hammer-on
| p  pull-off
| ~  vibrato
| +  harmonic
| x  Mute note
===============================================================================



Suggest correction
What's this?
You can suggest a correction to this tab. Community and Mods will review your correction and vote to approve or reject it.
comments
We did not receive enough feedback on this tab! Please rate:
print report bad tab
1 2 3 4 5
guest
You may want to rate the tab now too:
select rating
Please do not post tabs as comments. Select "correction" instead!