Oops, an error
Loading. Please wait.

Run Bass Tab

version 2
version 2

Whole song

Interactive

265 views 1 this week
2 commentsread comments
1 2 3 4 5
please rate
add to favorites
launch autoscroll
font size
0
reset
guitar tuner
Tab Pro tools
  • play this tab
  • loop segment
  • change instrument
  • show fretboard
  • metronome
×
Best way to learn
"Run"
Autoscroll
slow
fast
+/-
esc
set tempo
stop
Contributor
Difficulty
novice
---------------------------------------------------------------------------
			     RUN – Day Of Fire
---------------------------------------------------------------------------

Artist: Day Of Fire
Album: Cut and Move

Tabbed By : Hurm

Tuning: standard 5-string (BEADG)


Intro
G|------------------|
D|------------------|
A|------------------|
E|------------------|
B|-1146114611461146-|

Verse
G|-------------------------------|
D|-------------------------------|
A|-------------------------------| 2x
E|------666-----666-----666------|
B|-11461---11461---11461---76-64-|

G|-------------------------------|
D|-------------------------------|
A|-------------------------------|
E|-------------------------------|
B|-----------------------6/76-64-|

G|---------------------------------|
D|---------------------------------|
A|---------------------------------|
E|---------------------------------|
B|-1146----1146----1146----6/76-64-|

Chorus
G|----------------------------------|
D|----------------------------------|
A|-----------------------86-667--67-| 2x
E|-888766----------888766--6---88---|
B|-------14-4456641-----------------|

G|-----------|
D|-----------|
A|-----------|
E|-----------|
B|-11461-111-|

Verse
G|-------------------------------|
D|-------------------------------|
A|-------------------------------| 2x
E|------666-----666-----666------|
B|-11461---11461---11461---76-64-|

Chorus
G|----------------------------------|
D|----------------------------------|
A|-----------------------86-667--67-| 2x
E|-888766----------888766--6---88---|
B|-------14-4456641-----------------|

Bridge
G|-------------------------------|
D|-------------------------------|
A|-------------------------------| 2x
E|------666-----666-----666------|
B|-11461---11461---11461---76-64-|

Bridge part 2
G|------|
D|------|
A|------| 16x
E|------|
B|-1146-|

Chorus
G|----------------------------------|
D|----------------------------------|
A|-----------------------86-667--67-| 4x
E|-888766----------888766--6---88---|
B|-------14-4456641-----------------|

Ending
G|---------|
D|---------|
A|---------|
E|-88876~\-|
B|---------|
        ^vibrato

| /  slide up
| \  slide down
| ~  vibrato

===========================================================================
comments
We did not receive enough feedback on this tab! Please rate:
print report bad tab
1 2 3 4 5
2 comments total.
0 reply
Haloquadratum wrote on April 14 2014, 01:21 pm

This ahould be in C tuning.
The way it's written now makes it impossible to play.

0 reply
Hurm wrote on April 14 2014, 05:20 pm

True, C tuning would allow you to use the open strings, making it less exhausting for your left hand.
I don't like retuning my bass for every song, that's why I prefer to write my tabs in standard tuning. Thanks!

I want to post or [tab]
guest
You may want to rate the tab now too:
select rating
Please do not post tabs as comments. Select "correction" instead!