Oops, an error
Loading. Please wait.

Time Tab

303 views 1 this week
no commentswrite comment
1 2 3 4 5
3 more votes to show rating
add to favorites
launch autoscroll
font size
0
reset
how to read this tab
guitar tuner
Autoscroll
slow
fast
+/-
esc
set tempo
stop
Help us to improve Ultimate-Guitar.com Take our survey!
×
Band- Day Of Fire
Song- Time

Tuning--Dropped D (I promise you can hit all the notes)

Intro & Verse
----------------------------------------------------------------|
----------------------------------------------------------------|
-7-7-7~~7-7-7-7-------------------------------------------------|
-7-7-7~~7-7-7-7-8-8-8-8-8-8-8-8-8-5-5-5-5-5-5-5-5-5-5-5-5-5-5-5-|
-5-5-5~~5-5-5-5-8-8-8-8-8-8-8-8-8-5-5-5-5-5-5-5-5-5-5-5-5-5-5-5-|
----------------8-8-8-8-8-8-8-8-8-5-5-5-5-5-5-5-5-5-5-5-5-5-5-5-|
       PM-------------------------------------------------------|

Chorus
-----------------------------------------------------------|
-----------------------------------------------------------|
-3-3-3-3-3-3-3-3-5-5-5-5-5-5-5-5-7-7-7-7-7-7-7-7-7-7-7-7-7-|
-3-3-3-3-3-3-3-3-5-5-5-5-5-5-5-5-7-7-7-7-7-7-7-7-7-7-7-7-7-|
-1-1-1-1-1-1-1-1-3-3-3-3-3-3-3-3-5-5-5-5-5-5-5-5-5-5-5-5-5-|
-----------------------------------------------------------|
Riff 1                       Riff 2
---------------                -----------------------------------------------|
---------------                -----------------------------------------------|
--------------3                ---------------------------------------------7-|
--------------3                -Sometimes this is played--------------------7-|
----------0-1-1                -once, sometimes twice-----------------0-1-3-5-|
1h3h5-5-5------                -5-3-5p3-3h5-5~5p3-3h5p3~-------0-1-3-5--------|
This is kinda quick
and the 1h3h5 is quiet.
I think the bass plays it
more audibly than the
guitar. It's not played
every time, listen to the cd.

Bridge
---------------------------------- -Acoustic 2 starts playing this--6-----|
---------------------------------- -----5-6-5---5-6-5---5-6-5---5-6---5-6-|
---------------------------------- ----5------5-------3-------3-----------|
---2-3-2---2-3-2---2-3-3---2-3-2-- ---------------------------------------|
-3-------3-------1-------1-------- ---------------------------------------|
---------------------------------- ---------------------------------------|
One acoustic plays this really lightly.


---------------10~~10~~10~~10-10-10-12-12-12-13-13-13-15-15-15-17~~~~~-|
---------------This is played by the electric the last time around-----|
-3~--5~----------------------------------------------------------------|
-3~--5~---5~-----------------------------------------------------------|
-1~--3~---5~-----------------------------------------------------------|
----------5~-----------------------------------------------------------|
This is played very quietly by the electric.
Suggest correction
Give kudos to tab author, rate the tab!
1 2 3 4 5
comments
print report bad tab
guest
You may want to rate the tab now too:
select rating
Wanna post a correction for this tab? Suggest correction