Oops, an error
Loading. Please wait.

To Fly Tab

version 2
version 2

Whole song

643 views 1 this week
1 commentread comment
1 2 3 4 5
please rate
add to favorites
launch autoscroll
font size
0
reset
how to read this tab
guitar tuner
Autoscroll
slow
fast
+/-
esc
set tempo
stop
Help us to improve Ultimate-Guitar.com Take our survey!
×
Difficulty
novice
-------------------------------------------------------------------------------
                             To Fly - Day of Fire
-------------------------------------------------------------------------------
Tabbed by: Chafe
Email: chafed@gmail.com

Tuning: Standard (You can do it in Drop D, it's a bit harder because some of the
                  notes are farther away and some of the fingerings are more
                  awkward, but it's better to play it in Drop D if you're doing
                  a set with other Drop D songs so you don't have to tune.)

Intro / Verse

e|---------------------------------------------------------------------------|
B|---------------------------------------------------------------------------|
G|---------------------------------------------------------------------------|
D|--5--5-5--3-5--------------------------5-----------6----3------------5-----|
A|--3--3-3--1-3----three-times-then------3---3-1-----6----3-----3-1----3-----|
E|-----------------------------------------1-----1---4----1---1-----1--------|
                                                  Then back to the verse riff

Chorus

e|---------------------------------------------------------------------------|
B|---------------------------------------------------------------------------|
G|----------------------------------------------------------------5----------|
D|-5------------6-----------------------3-------------------------5----------|
A|-3---3-1------6-----------------------3-------------------------3----------|
E|---1-----3----4-----------------------1------------------------------------|

                I can see it in your eyes  You were made to overcome

e|---------------------------------------------------------------------------|
B|---------------------------------------------------------------------------|
G|---------------------------------------------------------------------------|
D|------------------------6-----------------------------3--------------------|
A|------------------------6-----------------------------3--------------------|
E|------------------------4-----------------------------1--------------------|

   I can see it in your eyes   You were made to rise above

e|---------------------------------------------------------------------------|
B|---------------------------------------------------------------------------|
G|---------------------------------------------------------------------------|
D|------------------------6---------------------------5----------------------|
A|------------------------6---------------------------3----------------------|
E|------------------------4--------------------------------------------------|
                                                            Back to the Verse
   I can see it in your eyes   So take these wings and fly


I'm not going to try and tab out the solo or the bridge, but the rhythm under
the solo is the chorus, and the bass plays the verse under the bridge, so if
you improvise with C and F notes, you should be fine for the bridge.

Keep rockin' out, and check out my other tab for I Am the Door by Day of Fire
There should be more to come. :D

Suggest correction
What's this?
You can suggest a correction to this tab. Community and Mods will review your correction and vote to approve or reject it.
comments
We did not receive enough feedback on this tab! Please rate:
print report bad tab
1 2 3 4 5
1 comment total.
0 reply
lightdark 167 wrote on March 30 2013, 09:22 pm

Good tab. It's in the key of c minor, or at least that's what I improvise over it in for the solo.

guest
You may want to rate the tab now too:
select rating
Please do not post tabs as comments. Select "correction" instead!