Oops, an error
Loading. Please wait.

Gone tab

556 views 6 this week
no commentswrite comment
1 2 3 4 5
x 4
add to favorites
×
Save as Personal and add changes to this tab that will be seen only by you. Learn more ›
×
You can save this tab as Personal to edit and correct it or add notes. All changes will be seen only by you. Learn more »
launch autoscroll
font size
0
reset
how to read this tab
guitar tuner
edit
Autoscroll
slow
fast
+/-
esc
set tempo
stop
Author
Difficulty
About this tab version
This tab is based off the studio version of the song. Was this info helpful? Yes No
-------------------------------------------------------------------------------
                                GONE - Day Wave
-------------------------------------------------------------------------------

There are 2 guitars in this song, and they're tuned as follows:

Rhythm Guitar: DADGBE, with a capo on the 3rd fret
Lead Guitar: EADGBE, no capo


Intro (from 0:00 to 0:32)


The first riff played in the intro is the lead guitar riff (it starts at 0:06):

e|----------8--------------8--------------8--------------8------|
B|-----11------11-----11------11-----11------11-----11----------| x 4
G|---8----8--------8-----8---------8----8--------8-----8----8---|
D|--------------------------------------------------------------|
A|--------------------------------------------------------------|
E|--------------------------------------------------------------|


The main riff (rhythm guitar) starts at 0:20 (0 = 3rd fret, as there is a capo on that guitar):

e|-------------------------------------------------------------------------------|
B|-------------------------------------------------------------------------------| x 2
G|--------------------------------------------------0----------------------------|
D|------------9-------------------0------------------------------0---2-----------|
A|------10---------10-----7---7-------7---7\----2-------2---/3-----------3---3---|
D|---10----10---10----10\---7---7---7---7-----2---2---2---2----3---3---3---3-----|


Verse 1 (from 0:33 to 0:58)


The main riff (rhythm guitar) is played throughout the verse:

e|-------------------------------------------------------------------------------|
B|-------------------------------------------------------------------------------| x 4
G|--------------------------------------------------0----------------------------|
D|------------9-------------------0------------------------------0---2-----------|
A|------10---------10-----7---7-------7---7\----2-------2---/3-----------3---3---|
D|---10----10---10----10\---7---7---7---7-----2---2---2---2----3---3---3---3-----|


There is a lead guitar riff that starts at 0:46 (it's the same riff as the one played by the synth):

e|--------6------6-----------6------6--------|
B|------8------8------8----8------8------8---| x 4
G|---10-----10-----10---10-----10-----10-----|
D|-------------------------------------------|
A|-------------------------------------------|
E|-------------------------------------------|


Pre-Chorus 1 (from 0:59 to 1:12)


The only riff played here is the same lead guitar riff from the verse:

e|--------6------6-----------6------6--------|
B|------8------8------8----8------8------8---| x 4
G|---10-----10-----10---10-----10-----10-----|
D|-------------------------------------------|
A|-------------------------------------------|
E|-------------------------------------------|


Chorus 1 (from 1:12 to 1:25)


The only riff played during the first chorus is the main riff (rhythm guitar):

e|-------------------------------------------------------------------------------|
B|-------------------------------------------------------------------------------| x 2
G|--------------------------------------------------0----------------------------|
D|------------9-------------------0------------------------------0---2-----------|
A|------10---------10-----7---7-------7---7\----2-------2---/3-----------3---3---|
D|---10----10---10----10\---7---7---7---7-----2---2---2---2----3---3---3---3-----|


Pre-Verse (from 1:26 to 1:39):


There is a lead guitar riff played with a slide:

e|---------------------------------------|
B|---------------------------------------|
G|---/15-----\12----------3/15-----\12---|
D|---------------------------------------|
A|---------------------------------------|
E|---------------------------------------|


The rhythm guitar comes back at 1:35:

e|------------------------------------------------|
B|------------------------------------------------|
G|-------------------0----------------------------|
D|--------------------------------0---2-----------|
A|-----7---7\----2-------2---/3-----------3---3---|
D|---7---7-----2---2---2---2----3---3---3---3-----|


Verse 2 (exactly the same as verse 1) (from 1:39 to 2:05)


Pre-chorus 2 (exactly the same as the first pre-chorus) (from 2:05 to 2:18)


Chorus 2 (from 2:19 to 2:32)


The main riff (rhythm guitar) is played throughout the chorus:

e|-------------------------------------------------------------------------------|
B|-------------------------------------------------------------------------------| x 2
G|--------------------------------------------------0----------------------------|
D|------------9-------------------0------------------------------0---2-----------|
A|------10---------10-----7---7-------7---7\----2-------2---/3-----------3---3---|
D|---10----10---10----10\---7---7---7---7-----2---2---2---2----3---3---3---3-----|


The only difference with the first chorus is that the lead guitar riff from the intro is played too:

e|----------8--------------8--------------8--------------8------|
B|-----11------11-----11------11-----11------11-----11----------| x 2
G|---8----8--------8-----8---------8----8--------8-----8----8---|
D|--------------------------------------------------------------|
A|--------------------------------------------------------------|
E|--------------------------------------------------------------|


Bridge (from 2:32 to 3:11)


The lead guitar riff from the intro is played throughout the verse:

e|----------8--------------8--------------8--------------8------|
B|-----11------11-----11------11-----11------11-----11----------| x 6
G|---8----8--------8-----8---------8----8--------8-----8----8---|
D|--------------------------------------------------------------|
A|--------------------------------------------------------------|
E|--------------------------------------------------------------|


There is a riff played with a slide too:

e|-------------------------------------------------------------------------------------------|
B|-------------------------------------------------------------------------------------------| 
G|---/15-----\12----------3/15-----\12----------3/15-----/17-----\12----------3/15-----\12---|
D|-------------------------------------------------------------------------------------------|
A|-------------------------------------------------------------------------------------------|
E|-------------------------------------------------------------------------------------------|

e|------------------------------------------|
B|------------------------------------------| 
G|-----3/15-----\12----------3/15-----\12---|
D|------------------------------------------|
A|------------------------------------------|
E|------------------------------------------|


There is also a rhythm guitar riff that goes like this (it starts at 2:45):

e|-----------------------------------------------------------------|
B|-----------------------------------------------------------------|
G|------------------------0----------------------------------------| x 2
D|---------0-----------------2-----------2--------------2----------| 
A|-----3------3---3---3----------3---3------3---3---3------3---3---|
D|---0---0------0---0---0------0---3---3------3---3---3------3-----|


e|-----------------------------------------------------------------|
B|-----------------------------------------------------------------|
G|-----------------------------------------------------------------| 
D|---------0--------------2--------------2--------------2----------| 
A|-----3------3---3---3------3---3---3------3---3---3------3---3---|
D|---0---0------0---0---0------0---3---3------3---3---3------3-----|


e|-----------------------------------------------------------------|
B|-----------------------------------------------------------------|
G|------------------------0----------------------------------------|
D|---------0-----------------2-----------2--------------2----------| 
A|-----3------3---3---3----------3---3------3---3---3------3---3---|
D|---0---0------0---0---0------0---3---3------3---3---3------3-----|


Chorus 3 (from 3:11 to 3:42)


The main riff (rhythm guitar) is played throughout the chorus:

e|-------------------------------------------------------------------------------|
B|-------------------------------------------------------------------------------| x 4
G|--------------------------------------------------0----------------------------|
D|------------9-------------------0------------------------------0---2-----------|
A|------10---------10-----7---7-------7---7\----2-------2---/3-----------3---3---|
D|---10----10---10----10\---7---7---7---7-----2---2---2---2----3---3---3---3-----|


The lead guitar riff from the intro is also played:

e|----------8--------------8--------------8--------------8------|
B|-----11------11-----11------11-----11------11-----11----------| x 4
G|---8----8--------8-----8---------8----8--------8-----8----8---|
D|--------------------------------------------------------------|
A|--------------------------------------------------------------|
E|--------------------------------------------------------------|


There is also a riff played with a slide:

e|----------------------------------------------------------------------------------------------|
B|----------------------------------------------------------------------------------------------| 
G|-----3/15-----\12----------3/15-----\12----------3/15-----/17-----\12----------3/15-----\12---|
D|----------------------------------------------------------------------------------------------|
A|----------------------------------------------------------------------------------------------|
E|----------------------------------------------------------------------------------------------|



************************************

| /   slide up
| \   slide down

************************************

            
            
Suggest correction
Creating personal tab
Creating personal tab
You can edit any tab online and save it as your Personal.

You can edit, replace or remove any tab part or add personal notes – all changes will be seen only by you.

Personal tabs can be accessed anytime from any device, even offline.
Learn more »
comments
print report bad tab
guest
You may want to rate the tab now too:
select rating
Wanna post a correction for this tab? Suggest correction