Oops, an error
Loading. Please wait.

You tab

175 views 3 this week
no commentswrite comment
1 2 3 4 5
x 3
add to favorites
×
Save as Personal and add changes to this tab that will be seen only by you. Learn more ›
×
You can save this tab as Personal to edit and correct it or add notes. All changes will be seen only by you. Learn more »
launch autoscroll
font size
0
reset
how to read this tab
guitar tuner
edit
Autoscroll
slow
fast
+/-
esc
set tempo
stop
Author
Difficulty
About this tab version
This is the completed first attempt at this tab. Was this info helpful? Yes No
[Intro]

Rhythm
e|-------------0-0-0-0--|------------0-0-0-0--|------------0-0-0-0--|------------0-0-0-0--|
B|-----0-------0-0-0-0--|----0-------0-0-0-0--|----0-------0-0-0-0--|----0-------0-0-0-0--|
G|-----8-------8-8-8-8--|----8-------8-8-8-8--|----8-------8-8-8-8--|----8-------8-8-8-8--|
D|-------9-----9-9-9-9--|------9-----9-9-9-9--|------9-----9-9-9-9--|------9-----9-9-9-9--|
A|-------------7-7-7-7--|------------7-7-7-7--|------------7-7-7-7--|------------7-7-7-7--|
E|--7------0~-----------|--7-----0~-----------|--7-----0~-----------|--7-----0~-----------|

Lead is silent
e|----------------------|---------------------|---------------------|---------------------|
B|----------------------|---------------------|---------------------|---------------------|
G|----------------------|---------------------|---------------------|---------------------|
D|----------------------|---------------------|---------------------|---------------------|
A|----------------------|---------------------|---------------------|---------------------|
E|----------------------|---------------------|---------------------|---------------------|

Rhythm 
e|-------------0-0-0-0--|------------0-0-0-0--|------------0-0-0-0--|------------0-0-0-0--|
B|-----0-------0-0-0-0--|----0-------0-0-0-0--|----0-------0-0-0-0--|----0-------0-0-0-0--|
G|-----8-------8-8-8-8--|----8-------8-8-8-8--|----8-------8-8-8-8--|----8-------8-8-8-8--|
D|-------9-----9-9-9-9--|------9-----9-9-9-9--|------9-----9-9-9-9--|------9-----9-9-9-9--|
A|-------------7-7-7-7--|------------7-7-7-7--|------------7-7-7-7--|------------7-7-7-7--|
E|--7------0~-----------|--7-----0~-----------|--7-----0~-----------|--7-----0~-----------|

Lead
e|--------------------------------|--------------------------------|
B|--------------------------------|--------------------------------|
G|--------------------------11----|--------------------------11----|
D|--11-13-11-13-11-13-11-13---13--|--11-13-11-13-11-13-11-13---13--|
A|--------------------------------|--------------------------------|
E|--------------------------------|--------------------------------|

e|--------------------------------|--------------------------------|
B|--------------------------------|--------------------------------|
G|--------------------------11----|--------------------------11----|
D|--11-13-11-13-11-13-11-13---13--|--11-13-11-13-11-13-11-13---13--|
A|--------------------------------|--------------------------------|
E|--------------------------------|--------------------------------|

[Verse]

Rhythm
e|-------------0-0-0-0--|------------0-0-0-0--|------------0-0-0-0--|------------0-0-0-0--|
B|-----0-------0-0-0-0--|----0-------0-0-0-0--|----0-------0-0-0-0--|----0-------0-0-0-0--|
G|-----8-------8-8-8-8--|----8-------8-8-8-8--|----8-------8-8-8-8--|----8-------8-8-8-8--|
D|-------9-----9-9-9-9--|------9-----9-9-9-9--|------9-----9-9-9-9--|------9-----9-9-9-9--|
A|-------------7-7-7-7--|------------7-7-7-7--|------------7-7-7-7--|------------7-7-7-7--|
E|--7------0~-----------|--7-----0~-----------|--7-----0~-----------|--7-----0~-----------|

Lead this part is faint when the first comes in and increasingly gets louder towards the middle
e|--------------------14-14-14-14-14-14-14-14--|--------------------14-14-14-14-14-14-14-14--|
B|--16-16-16-16-16-16--------------------------|--16-16-16-16-16-16--------------------------|
G|---------------------------------------------|---------------------------------------------|
D|---------------------------------------------|---------------------------------------------|
A|---------------------------------------------|---------------------------------------------|
E|---------------------------------------------|---------------------------------------------|

Rhythm
e|-------------0-0-0-0--|------------0-0-0-0--|------------0-0-0-0--|------------0-0-0-0--|
B|-----0-------0-0-0-0--|----0-------0-0-0-0--|----0-------0-0-0-0--|----0-------0-0-0-0--|
G|-----8-------8-8-8-8--|----8-------8-8-8-8--|----8-------8-8-8-8--|----8-------8-8-8-8--|
D|-------9-----9-9-9-9--|------9-----9-9-9-9--|------9-----9-9-9-9--|------9-----9-9-9-9--|
A|-------------7-7-7-7--|------------7-7-7-7--|------------7-7-7-7--|------------7-7-7-7--|
E|--7------0~-----------|--7-----0~-----------|--7-----0~-----------|--7-----0~-----------|

Lead
e|--------------------14-14-14-14-14-14-14-14--|--------------------14-14-14-14-14-14-14-14--|
B|--16-16-16-16-16-16--------------------------|--16-16-16-16-16-16--------------------------|
G|---------------------------------------------|---------------------------------------------|
D|---------------------------------------------|---------------------------------------------|
A|---------------------------------------------|---------------------------------------------|
E|---------------------------------------------|---------------------------------------------|

[Chorus]

Rhythm only
e|-----------------------------------|
B|---0-----0-----0-----0--0--0~------|
G|---x-----x-----x-----x--x--8~------|
D|--11----11----11----11-11--9~------|
A|--11----11----11----11-11--7~------|
E|---9-----9-----9-----9--9~---------|
"I dont know how to feel about you..."

[Instrumental]

Rhythm
e|-------------0-0-0-0--|------------0-0-0-0--|------------0-0-0-0--|------------0-0-0-0--|
B|-----0-------0-0-0-0--|----0-------0-0-0-0--|----0-------0-0-0-0--|----0-------0-0-0-0--|
G|-----8-------8-8-8-8--|----8-------8-8-8-8--|----8-------8-8-8-8--|----8-------8-8-8-8--|
D|-------9-----9-9-9-9--|------9-----9-9-9-9--|------9-----9-9-9-9--|------9-----9-9-9-9--|
A|-------------7-7-7-7--|------------7-7-7-7--|------------7-7-7-7--|------------7-7-7-7--|
E|--7------0~-----------|--7-----0~-----------|--7-----0~-----------|--7-----0~-----------|

[Verse]

Rhythm
e|-------------0-0-0-0--|------------0-0-0-0--|------------0-0-0-0--|------------0-0-0-0--|
B|-----0-------0-0-0-0--|----0-------0-0-0-0--|----0-------0-0-0-0--|----0-------0-0-0-0--|
G|-----8-------8-8-8-8--|----8-------8-8-8-8--|----8-------8-8-8-8--|----8-------8-8-8-8--|
D|-------9-----9-9-9-9--|------9-----9-9-9-9--|------9-----9-9-9-9--|------9-----9-9-9-9--|
A|-------------7-7-7-7--|------------7-7-7-7--|------------7-7-7-7--|------------7-7-7-7--|
E|--7------0~-----------|--7-----0~-----------|--7-----0~-----------|--7-----0~-----------|

Lead
e|--------------------14-14-14-14-14-14-14-14--|--------------------14-14-14-14-14-14-14-14--|
B|--16-16-16-16-16-16--------------------------|--16-16-16-16-16-16--------------------------|
G|---------------------------------------------|---------------------------------------------|
D|---------------------------------------------|---------------------------------------------|
A|---------------------------------------------|---------------------------------------------|
E|---------------------------------------------|---------------------------------------------|

Guitar 3 repeats this riff throughout the 2nd Verse
e|-----------------------|-----------------------|-----------------------|-----------------------|
B|-----------------------|-----------------------|-----------------------|-----------------------|
G|-------8------8---8----|-------8------8---9----|-------8------8---8----|-------8------8---8----|
D|--9-11---9-11---9---9--|--9-11---9-11---9---9--|--9-11---9-11---9---9--|--9-11---9-11---9---9--|
A|-----------------------|-----------------------|-----------------------|-----------------------|
E|-----------------------|-----------------------|-----------------------|-----------------------|

Rhythm
e|-------------0-0-0-0--|------------0-0-0-0--|------------0-0-0-0--|------------0-0-0-0--|
B|-----0-------0-0-0-0--|----0-------0-0-0-0--|----0-------0-0-0-0--|----0-------0-0-0-0--|
G|-----8-------8-8-8-8--|----8-------8-8-8-8--|----8-------8-8-8-8--|----8-------8-8-8-8--|
D|-------9-----9-9-9-9--|------9-----9-9-9-9--|------9-----9-9-9-9--|------9-----9-9-9-9--|
A|-------------7-7-7-7--|------------7-7-7-7--|------------7-7-7-7--|------------7-7-7-7--|
E|--7------0~-----------|--7-----0~-----------|--7-----0~-----------|--7-----0~-----------|

Lead
e|--------------------14-14-14-14-14-14-14-14--|--------------------14-14-14-14-14-14-14-14--|
B|--16-16-16-16-16-16--------------------------|--16-16-16-16-16-16--------------------------|
G|---------------------------------------------|---------------------------------------------|
D|---------------------------------------------|---------------------------------------------|
A|---------------------------------------------|---------------------------------------------|
E|---------------------------------------------|---------------------------------------------|

Guitar 3 repeats this riff throughout the 2nd Verse
e|-----------------------|-----------------------|-----------------------|-----------------------|
B|-----------------------|-----------------------|-----------------------|-----------------------|
G|-------8------8---8----|-------8------8---9----|-------8------8---8----|-------8------8---8----|
D|--9-11---9-11---9---9--|--9-11---9-11---9---9--|--9-11---9-11---9---9--|--9-11---9-11---9---9--|
A|-----------------------|-----------------------|-----------------------|-----------------------|
E|-----------------------|-----------------------|-----------------------|-----------------------|

Rhythm
e|-------------0-0-0-0--|------------0-0-0-0--|------------0-0-0-0--|------------0-0-0-0--|
B|-----0-------0-0-0-0--|----0-------0-0-0-0--|----0-------0-0-0-0--|----0-------0-0-0-0--|
G|-----8-------8-8-8-8--|----8-------8-8-8-8--|----8-------8-8-8-8--|----8-------8-8-8-8--|
D|-------9-----9-9-9-9--|------9-----9-9-9-9--|------9-----9-9-9-9--|------9-----9-9-9-9--|
A|-------------7-7-7-7--|------------7-7-7-7--|------------7-7-7-7--|------------7-7-7-7--|
E|--7------0~-----------|--7-----0~-----------|--7-----0~-----------|--7-----0~-----------|

[Chorus]

Rhythm only
e|-----------------------------------|
B|---0-----0-----0-----0--0--0~------|
G|---x-----x-----x-----x--x--8~------|
D|--11----11----11----11-11--9~------|
A|--11----11----11----11-11--7~------|
E|---9-----9-----9-----9--9~---------|
"I dont know how to feel about you..."

[Bridge]

Rhythm is silent
e|---------------------------------------------------------------------------|
B|---------------------------------------------------------------------------|
G|---------------------------------------------------------------------------|
D|---------------------------------------------------------------------------|
A|---------------------------------------------------------------------------|
E|---------------------------------------------------------------------------|

Lead is silent
e|---------------------------------------------------------------------------|
B|---------------------------------------------------------------------------|
G|---------------------------------------------------------------------------|
D|---------------------------------------------------------------------------|
A|---------------------------------------------------------------------------|
E|---------------------------------------------------------------------------|

Guitar 3 could be a synth or soft Guitar part
e|-------14-14-----14-14--|-------14-14----14-14--|-------14-14-----14-14--|-------14-14-----14-14--|
B|--16-16-----16-16-------|--16-16----16-16-------|--16-16-----16-16-------|--16-16-----16-16-------|
G|------------------------|-----------------------|------------------------|------------------------|
D|------------------------|-----------------------|------------------------|------------------------|
A|------------------------|-----------------------|------------------------|------------------------|
E|------------------------|-----------------------|------------------------|------------------------|

Rhythm
e|-------------0-0-0-0--|------------0-0-0-0--|------------0-0-0-0--|------------0-0-0-0--|
B|-----0-------0-0-0-0--|----0-------0-0-0-0--|----0-------0-0-0-0--|----0-------0-0-0-0--|
G|-----8-------8-8-8-8--|----8-------8-8-8-8--|----8-------8-8-8-8--|----8-------8-8-8-8--|
D|-------9-----9-9-9-9--|------9-----9-9-9-9--|------9-----9-9-9-9--|------9-----9-9-9-9--|
A|-------------7-7-7-7--|------------7-7-7-7--|------------7-7-7-7--|------------7-7-7-7--|
E|--7------0~-----------|--7-----0~-----------|--7-----0~-----------|--7-----0~-----------|

Lead is silent
e|---------------------------------------------------------------------------|
B|---------------------------------------------------------------------------|
G|---------------------------------------------------------------------------|
D|---------------------------------------------------------------------------|
A|---------------------------------------------------------------------------|
E|---------------------------------------------------------------------------|

Guitar 3
e|-------14-14-----14-14--|-------14-14----14-14--|-------14-14-----14-14--|-------14-14-----14-14--|
B|--16-16-----16-16-------|--16-16----16-16-------|--16-16-----16-16-------|--16-16-----16-16-------|
G|------------------------|-----------------------|------------------------|------------------------|
D|------------------------|-----------------------|------------------------|------------------------|
A|------------------------|-----------------------|------------------------|------------------------|
E|------------------------|-----------------------|------------------------|------------------------|

Rhythm
e|-------------0-0-0-0--|------------0-0-0-0--|------------0-0-0-0--|------------0-0-0-0--|
B|-----0-------0-0-0-0--|----0-------0-0-0-0--|----0-------0-0-0-0--|----0-------0-0-0-0--|
G|-----8-------8-8-8-8--|----8-------8-8-8-8--|----8-------8-8-8-8--|----8-------8-8-8-8--|
D|-------9-----9-9-9-9--|------9-----9-9-9-9--|------9-----9-9-9-9--|------9-----9-9-9-9--|
A|-------------7-7-7-7--|------------7-7-7-7--|------------7-7-7-7--|------------7-7-7-7--|
E|--7------0~-----------|--7-----0~-----------|--7-----0~-----------|--7-----0~-----------|

Lead
e|--------------------------------|--------------------------------|
B|--------------------------------|--------------------------------|
G|--------------------------11----|--------------------------11----|
D|--11-13-11-13-11-13-11-13---13--|--11-13-11-13-11-13-11-13---13--|
A|--------------------------------|--------------------------------|
E|--------------------------------|--------------------------------|

e|--------------------------------|--------------------------------|
B|--------------------------------|--------------------------------|
G|--------------------------11----|--------------------------11----|
D|--11-13-11-13-11-13-11-13---13--|--11-13-11-13-11-13-11-13---13--|
A|--------------------------------|--------------------------------|
E|--------------------------------|--------------------------------|

Guitar 3
e|-------14-14-----14-14--|-------14-14----14-14--|-------14-14-----14-14--|-------14-14-----14-14--|
B|--16-16-----16-16-------|--16-16----16-16-------|--16-16-----16-16-------|--16-16-----16-16-------|
G|------------------------|-----------------------|------------------------|------------------------|
D|------------------------|-----------------------|------------------------|------------------------|
A|------------------------|-----------------------|------------------------|------------------------|
E|------------------------|-----------------------|------------------------|------------------------|

[Outro]

Rhythm 
e|-----------------------------------|
B|---0-----0-----0-----0--0--0~------|
G|---x-----x-----x-----x--x--8~------|
D|--11----11----11----11-11--9~------|
A|--11----11----11----11-11--7~------|
E|---9-----9-----9-----9--9~---------|
"I dont know how to feel about you..."

Lead is silent
e|---------------------------|
B|---------------------------|
G|---------------------------|
D|---------------------------|
A|---------------------------|
E|---------------------------|

Guitar 3
e|--------14-14-------14-14--|
B|--16-16-------16-16--------|
G|---------------------------|
D|---------------------------|
A|---------------------------|
E|---------------------------|



************************************

| ~   Vibrato

************************************
Suggest correction
Creating personal tab
Creating personal tab
You can edit any tab online and save it as your Personal.

You can edit, replace or remove any tab part or add personal notes – all changes will be seen only by you.

Personal tabs can be accessed anytime from any device, even offline.
Learn more »
Give kudos to tab author, rate the tab!
1 2 3 4 5
comments
print report bad tab
guest
You may want to rate the tab now too:
select rating
Wanna post a correction for this tab? Suggest correction