Oops, an error
Loading. Please wait.

I Am The God Tab

34 views 1 this week
no commentswrite comment
1 2 3 4 5
please rate
add to favorites
launch autoscroll
font size
0
reset
how to read this tab
guitar tuner
Tab Pro tools
  • play this tab
  • loop segment
  • change instrument
  • show fretboard
  • metronome
Autoscroll
slow
fast
+/-
esc
set tempo
stop
DAYBLIND: record label - HTTP://www.launchrecords.tk
MP3s: http://music.download.com/dayblind
artist bio: http://www.metal-archives.com (type in dayblind and search it)


DayBlind - I Am The God
-------------------------
The tuning for this song is Drop D -1 Step
Two Guitar Players - Left and Right
I mixed the track mainly for the convenience of
only have a single guitar player.

Tabbed by: Shawn Sherwood [morbidguitar@hotmail.com]


(Main Riff)
---------------------------------------------------------|
---------------------------------------------------------|
---------------------------------------------------------|
-12-0-0-10-0-0-13-0-0-12-0-------------------------------|
-12-0-0-10-0-0-13-0-0-12-0-0-----------------------------|
-12-0-0-10-0-0-13-0-0-12-0-0-0-3/7-7-7-3-3-3-8-8-8-0-0-0-|

--------------------------------------------------------------|
--------------------------------------------------------------|
--------------------------------------------------------------|
-12-0-0-10-0-0-13-0-0-12-0------------------------------------|
-12-0-0-10-0-0-13-0-0-12-0-0----------------------------------|
-12-0-0-10-0-0-13-0-0-12-0-0-0-11-12-11-10-11-10-9-10-9-8-9-8-|

(Verse)
---------------------------------------------------|
---------------------------------------------------|
---------------------------------------------------|
---------------------------------------------------|
-0-0-0-1-1-1-0-0-0-1-1-1---------------------------|
-0-0-0-1-1-1-0-0-0-1-1-1-3/7-7-7-3-3-3-8-8-8-0-0-0-|

-------------------------------------------------|--------------|
-------------------------------------------------|--------------|
-------------------------------------------------|--------------|
-------------------------------------------------|--------------|
-0-0-0-1-1-1-0-0-0-1-1-1-4-5-4-3-4-3-2-3-2-1-2-1-|--------------|
-0-0-0-1-1-1-0-0-0-1-1-1-------------------------|-0-0-0--0-0-0-|

(Chorus)
-------------------------------|
-------------------------------|
-------------------------------|
-0-7-----0-7-----3-5-3---6-7-8-|
-0---8---0---8---3-----3-6-7-8-|
-0-----7-0-----7-3-------6-7-8-|

-------------------------------|----|
-------------------------------|----|
-------------------------------|----|
-0-7-----0-7-----3-5-3---1-3-1-|-0~-|
-0---8---0---8---3-----3-1-3-1-|-0~-|
-0-----7-0-----7-3-------1-3-1-|-0~-|

(Fill)
-------------------------------------------|
-------------------------------------------|
-------------------------------------------|
-0-3-5-0-3-5-------------5-3-0-5-3-0-0-3-5-|
-0-3-5-0-3-5-------------5-3-0-5-3-0-0-3-5-|
-0-3-5-0-3-5-6-6-6-6-6-6-5-3-0-5-3-0-0-3-5-|

-|---------------------------------|
-|---------------------------------|
-|---------------------------------|
-|-0-3-5-0-3-5---------------5-3-0-|
-|-0-3-5-0-3-5---------------5-3-0-|
-|-0-3-5-6-6-6-6-6-6-6-6-6-6-5-3-0-|

(Second Verse)
-------------------------------------------------|
-------------------------------------------------|
-------------------------------------------------|
-------------------------------------3-5-5-3-5-5-|
-------------------------------------3-5-5-3-5-5-|
-3-1-0-6-3-0-3-1-0-6-3-0-3-1-0-6-3-0-3-5-5-3-5-5-|

-------------------------------------------------|
-------------------------------------------------|
-------------------------------------------------|
---------------------------------------------3-5-|
-----------------------------------------3-5-----|
-3-1-0-6-3-0-3-1-0-6-3-0-3-1-0-6-3-0-3-5---------|

(Last riff)
guitar 1:
-------------------------------------|
-------------------------------------|
-------------------------------------|
---4----6----------------------------|
-0/4--0/6----------------------------|
-0/4--0/6-12-11-10-0-0-0-0-0-0-9-8-7-|

guitar 2:
-------------------------------------|
-------------------------------------|
-------------------------------------|
---6--6--5-6-5-3--7/0----------------|
-5----------------5/0----------------|
-------------------------------------|
comments
We did not receive enough feedback on this tab! Please rate:
print report bad tab
1 2 3 4 5
I want to post or [tab]
guest
You may want to rate the tab now too:
select rating
Please do not post tabs as comments. Select "correction" instead!