Oops, an error
Loading. Please wait.

Two Of A Kind Tab

version 1
version 1

Acoustic

Whole song

1,450 views 6 this week
no commentswrite comment
1 2 3 4 5
please rate
add to favorites
launch autoscroll
font size
0
reset
how to read this tab
guitar tuner
Tab Pro tools
  • play this tab
  • loop segment
  • change instrument
  • show fretboard
  • metronome
×
Best way to learn
"Two Of A Kind"
Autoscroll
slow
fast
+/-
esc
set tempo
stop
Difficulty
Tuning
intermediate
D# G# C# F# A# D#
Two of a Kind - Daylight - Acoustic Series #3 EP

Eb Ab Db Gb Bb eb

h - hammer on
p - pull off
/ - slide
~ - let ring


Guitar 1

Intro (0:00)

eb|-X-----------------------------------------------|
Bb|-X-----------------------------------------------|
Gb|-X-----------------------------------------------|
Db|-X--12--12-12-12-12-12-12--12--12-12-12-12-12-12-|
Ab|-X---9--10-10-10-10-10-10---9--10-10-10-10-10-10-|    x2
Eb|-X-----------------------------------------------|

Chorus (0:07)

eb|-X-X-X-X-----------------------------------------------|
Bb|-X-X-X-X-----------------------------------------------|
Gb|-X-X-X-X-----------------------------------------------|
Db|-X-X-X-X--12--12-12-12-12-12-12--12--12-12-12-12-12-12-|
Ab|-X-X-X-X---9--10-10-10-10-10-10---9--10-10-10-10-10-10-|
Eb|-X-X-X-X---0---0--0--0--0--0--0---0---0--0--0--0--0--0-|

eb|-----------------------------------------------|
Bb|-----------------------------------------------|        x2
Gb|-----------------------------------------------|
Db|--12--12-12-12-12-12-12--12--12-12-12-12-12-12-|
Ab|---9--10-10-10-10-10-10---9--10-10-10-10-10-10-|
Eb|---8---8--8--8--8--8--8---8---8--8--8--8--8--8-|

Verse Pt. 1:(0:21)  ||||
Strum these chords. VVVV Listen to the song for the pattern.
"Well I'll take comfort in knowing"

eb|-------------------------------------------------|
Bb|-------------------------------------------------|
Gb|-------------------------------------------------|
Db|-12--------12--------12--------------------------|
Ab|-10---------9--------10--------------------------|
Eb|--0--------10---------8--------------------------|

Verse Pt. 2:(0:50)   ||||
Strum these as well. VVVV (Guitars 1 AND 2 play this)
"My intentions have become"
First Harmony:  (1:02)

eb|-------------------------------------------------|      eb|-------------------|
Bb|-------------------------------------------------|      Bb|-------------------|
Gb|-------------------------------------------------|      Gb|-------------------|
Db|---12----12----12--------------------------------|      Db|--12--12-----------|
Ab|---10----10----10--------------------------------|      Ab|--10--10---5---7---|
Eb|---12----10-----8--------------------------------|      Eb|---8---0-----------|


Chorus  "Oh, I can't believe myself" (1:04)

Second Harmony:  (1:32)

eb|--------------------|
Bb|--------------------|
Gb|--------------------|
Db|---9---12-----------|
Ab|------------10---9--|
Eb|--------------------|

Verse Pt. 1: "I hope to hell that you're still hurt" (1:35)

Bridge / Breakdown  (2:05)

eb|-------------------------------------------------|
Bb|-------------------------------------------------|
Gb|-------------------------------------------------|
Db|--------12-----------12------12------------------|
Ab|-----10----10-----------10------10---9h10--------|
Eb|--0--------------0---------0---------------------|


eb|-------------------------------------------------|
Bb|-------------------------------------------------|
Gb|-------------------------------------------------|
Db|--------12-----------12------12------------------|
Ab|-----10----10-----------10------10---------------|
Eb|--8--------------8---------8-------8-------------|



Guitar 2

Chorus (0:07)

eb|-------0---0------------0------------------------|
Bb|-------0---0--0---------0------------------------|
Gb|--7/9--9-----------2/4--4---5--4-----------------|
Db|-------------------------------------------------|
Ab|-------------------------------------------------|  x2
Eb|-------------------------------------------------|


Verse Pt. 1: (0:21)                 ||||
Let the first two octaves ring out. VVVV

eb|-------------------------------------------------|
Bb|-------------------------------------------------|
Gb|-------------------------------------------------|
Db|--12~~~~11~~~~~12--12---14--14--11-11---12--12---|
Ab|---x-----x------x---x----x---x---x--x----x---x---|
Eb|--10~~~~~9~~~~~10--10---12--12---9--9---10--10---|

                                                                                         
   x2
eb|-------------------------------------------------|
Bb|-------------------------------------------------|
Gb|-------------------------------------------------|
Db|--12--12---14--14--11-11---12--12----------------|
Ab|---x---x----x---x---x--x----x---x----------------|
Eb|--10--10---12--12---9--9---10--10----------------|


Verse Pt. 2: (see Guitar 1) (0:50)

First Harmony: (1:02)

eb|----------------------|
Bb|----------------------|
Gb|----------------------|
Db|--12--12-----4---5----|
Ab|--10--10--------------|
Eb|---8---0--------------|


Chorus (1:04)

Second Harmony:  (1:32)

eb|--------------------|     eb|-----------|
Bb|--12---15-----------|     Bb|-----------|
Gb|-----------12---11--|     Gb|-----------|
Db|--------------------|     Db|--11/12----|
Ab|--------------------|     Ab|---x/-x----|
Eb|--------------------|     Eb|---9/10----|

Verse Pt. 1  (1:35)

Bridge / Breakdown (played twice) (2:05)

eb|----------------------------------------------------|
Bb|--12-----------15------------12---------------------|
Gb|------11h12p11------11h12p11------11h12p11----------|
Db|-------------------------------------------12-10----|
Ab|-------------------------------------------------10-|
Eb|----------------------------------------------------|


eb|----------------------------------------------------------------------|
Bb|--12-----------15--------------------12----12h13p12-------15-13-12----|
Gb|------11h12p11------11h12p11---12-14----14----------14-12-------------|
Db|----------------------------------------------------------------------|
Ab|----------------------------------------------------------------------|
Eb|----------------------------------------------------------------------|


eb|---15-14-15-17-------------|
Bb|---------------------------|
Gb|---------------------------|
Db|---------------------------|
Ab|---------------------------|
Eb|---------------------------|


Outro  (2:40)

eb|---7-----7-----7-----7-----|
Bb|------8-----8-----8----7---|
Gb|---------------------------|
Db|---------------------------|
Ab|---------------------------|   Repeat.
Eb|---------------------------|
comments
We did not receive enough feedback on this tab! Please rate:
print report bad tab
1 2 3 4 5
I want to post or [tab]
guest
You may want to rate the tab now too:
select rating
Please do not post tabs as comments. Select "correction" instead!