Oops, an error
Loading. Please wait.

Self Loathing chords

496 views 33 this week
no commentswrite comment
1 2 3 4 5
x 9
add to favorites
×
Save as Personal and add changes to this tab that will be seen only by you. Learn more ›
×
You can save this tab as Personal to edit and correct it or add notes. All changes will be seen only by you. Learn more »
launch autoscroll
font size
0
reset
transpose
0
reset
display chords
guitar tuner
edit
Autoscroll
slow
fast
+/-
esc
set tempo
stop
Strumming
There is no strumming pattern for this song yet. and get +5 IQ
SONG:   SELF LOATHING
ARTIST: DAYS N' DAZE
TAB BY: DON CZARSKI
EMAIL:  GUITARZAN7@HOTMAIL.COM


                SELF LOATHING
                DAYS N' DAZE

INTRO:

GUITAR 1:
F  Am  Bb  C   F

GUITAR 2:
   F                  Am
E -1-1-1-8-8-5--8-5-|-------8-8-5--8-5-|
B ------------------|-5-5-5------------|
G ------------------|------------------|
D ------------------|------------------|
A ------------------|------------------|
E ------------------|------------------|

   Bb                 C                 F
E -------8-8-6--8-6-|-------5-5----5----1-|
B -3-3-3------------|-8-8-8-----8----8--1-|
G ------------------|-------------------2-|
D ------------------|-------------------3-|
A ------------------|-------------------3-|
E ------------------|-------------------1-|


F  Am  Bb  C


VERSE:
        F
All my heroes are human

And my gods are all dead

Am
And hope's hard to find

So I’ll hide out in bed

       Bb
And I harbor a hatred

     Bb
For anyone left with

   C
A fragment of a smile


VERSE:
   F
I sewed on the bottle

And that didn’t help

   Am
It only brought clarity

Back to this hell

    Bb
It made me confront me

      Bb
That maybe I might need

    C
A break from myself for a while


CHORUS:
       Bb                
Now I know myself 
   C
A bit too well
    Am              Dm               Bb
And I’m not sure I like what I’ve become
      Bb
Self loathing is overwhelming
       C                     
Every mirror is a loaded gun

E -3-3-3-1-1-1-0-
B ---------------
G ---------------
D ---------------
A ---------------
E ---------------

F
Go!


INSTRUMENTAL:
F  Am  Bb  C
F  Am  Bb  C


VERSE:
     F
The past is the past

And what’s done is done

 Am
There’s no takin’ back

All the times I’ve fucked up

   Bb
I misplaced my hatred

And traded in love

       C
For a feeling so fleeting

And countless apologies


VERSE:
 F
'Cause I’m not much

To want to learn from my mistakes

      Am
I ...tend to hide behind

The habits I should shake

   Bb
If you really knew me

I’m not sure you’d like me

    C
So I’ll remain concealed in regret


CHORUS:
              Bb                
'Cause now I know myself 
   C
A bit too well
    Am              Dm               Bb
And I’m not sure I like what I’ve become

Self loathing is overwhelming
       C
Every mirror is a loaded gun


INSTRUMENTAL:
F  Am  Bb  C C C

GUITAR 1:
F  Am  Bb  C
F  Am  Bb  C

GUITAR 2:

E -5-3----5-3----5-3----5-3----5-3----5-3----5-3---3--|
B -----6------6------6------6------6------6------6----|
G ----------------------------------------------------|
D ----------------------------------------------------|
A ----------------------------------------------------|
E ----------------------------------------------------|


OUTRO:
 F       Dm
Can we change,
            Eb              Bb
Or are our ways too set in stone?

         Dm
Can we change,
            Eb              Bb    C
Or are our ways too set in sto-o-one?

         Dm
Can we change,
            Eb              Bb
Or are our ways too set in stone?

         Dm
Can we change,
            Eb              Bb    C
Or are our ways too set in sto-o-one?


GUITAR 1:
F  Am  Bb  C   F

GUITAR 2:
   F                  Am
E -1-1-1-8-8-5--8-5-|-------8-8-5--8-5-|
B ------------------|-5-5-5------------|
G ------------------|------------------|
D ------------------|------------------|
A ------------------|------------------|
E ------------------|------------------|

   Bb                 C                 F
E -------8-8-6--8-6-|-------5-5----5----1-|
B -3-3-3------------|-8-8-8-----8----8--1-|
G ------------------|-------------------2-|
D ------------------|-------------------3-|
A ------------------|-------------------3-|
E ------------------|-------------------1-|

            
            
Suggest correction
Creating personal tab
Creating personal tab
You can edit any tab online and save it as your Personal.

You can edit, replace or remove any tab part or add personal notes – all changes will be seen only by you.

Personal tabs can be accessed anytime from any device, even offline.
Learn more »
comments
print report bad tab
guest
You may want to rate the tab now too:
select rating
Wanna post a correction for this tab? Suggest correction