Oops, an error
Loading. Please wait.

Touch Peel And Stand Tab

version 1
version 1

Whole song

Interactive

127,966 views 153 this week
22 commentsread comments
1 2 3 4 5
x 25
add to favorites
launch autoscroll
font size
0
reset
how to read this tab
guitar tuner
Autoscroll
slow
fast
+/-
esc
set tempo
stop
Help us to improve Ultimate-Guitar.com Take our survey!
×
Author
Tuning
D A D G B E
[Intro]

  x2
E|-------------------------------------------------------|
B|-------------------------------------------------------|
G|-------------------------------------------------------|
D|-5/7-7-7----5/7-7-7------------------------------------|
A|-3/5-5-5----3/5-5-5-0—-3/5-5--5—-0-3/5-5--5--5—-5-0----|
D|---------0----------0—-3/5-5--5—-0-3/5-5--5--5—-5-0----|

E|-----------------------------------------------------------|
B|-----------------------------------------------------------|
G|-----------------------------------------------------------|
D|-----------------------------------------------------------|
A|-3-3-3--0-3----3-3-3--3-0—-3/5-5-5-5--3-0----0-0-0-5-3-0---|
D|-3-3-3--0-3----3-3-3--3-0—-3/5-5-5-5--3-0----0-0-0-5-3-0---|

  2nd time only
E|---------------------------|
B|---------------------------|
G|---------------------------|
D|---------------------------|
A|-0-0-0-5-3-0-----X-X-X-X---|
D|-0-0-0-5-3-0---------------|X-X-X-X—


[Verse]

 A)             B)            C)                     D)                    E)
E|---------   e|---------   e|------------------   e|------------------   e|---------|
B|---------   B|---------   B|------------------   B|------------------   B|---------|
G|---------   G|---------   G|------------------   G|------------------   G|---------|
D|---------   D|-5/7-X-X-   D|------------------   D|-5/7-7-7-X-X-X-X--   D|---------|
A|-3/5-X-X-   A|-3/5-X-X-   A|-3/5-5-5-X-X-X-X--   A|-3/5-5-5-X-X-X-X--   A|-X--X--X-|
D|-3/5-X-X-   D|---------   D|-3/5-5-5-X-X-X-X--   D|------------------   D|-X--X--X-|

A   Since I know how low to go
B   I won't let it show
A   Wont you touch me touch me
B   I won't let it go
C   And now I stand
D   And I peel for more
C   Wont you touch me touch me
B   I wont (E) let it go


[Chorus]

  Play throughout (about once every 2 lines)
E|-------------------------------------------------------|
B|-------------------------------------------------------|
G|-------------------------------------------------------|
D|-5/7-7-7----5/7-7-7------------------------------------|
A|-3/5-5-5----3/5-5-5-0—-3/5-5--5—-0-3/5-5--5--5—-5-0----|
D|---------0----------0—-3/5-5--5—-0-3/5-5--5--5—-5-0----|

E|-----------------------------------------------------------|
B|-----------------------------------------------------------|
G|-----------------------------------------------------------|
D|-----------------------------------------------------------|
A|-3-3-3--0-3----3-3-3--3-0—-3/5-5-5-5--3-0----0-0-0-5-3-0---|
D|-3-3-3--0-3----3-3-3--3-0—-3/5-5-5-5--3-0----0-0-0-5-3-0---|
Yes I've finally found the reason
I don't need an excuse
I've got this time on my hands
You are the one to abuse
One to abuse        mm mm

E|------------|
B|------------|
G|------------|
D|------------|
A|-X--X--X--X-|
D|-X--X--X--X-|


[Verse]

A   You're always talking back to me
B   You won't let it be
A   Won't you touch me touch me
B   It never bothered you before
C   Now I stand
D   And I peel for more
C   Won't you touch me touch me
D   I won't (E) let it go


[Chorus]

Play main riff throughout (about once every 2 lines)

Yes I've finally found the reason
I don't need an excuse
I've got this time on my hands
You are the one to abuse
Yes I've finally found the reason
I don't need an excuse
I've got this time on my hands
You are the one to abuse
The one to abuse

          Ohhh
E|------------|
B|------------|
G|------------|
D|------------|
A|-X--X--X--X-|
D|-X--X--X--X-|


[Interlude]

x7

  with slight variation
E|-------------------------|
B|-------------------------|
G|-------------------------|
D|--5/7-7-7-X--------------|
A|--3/5-5-5-X—-3/5-5-5-X---|
D|-------------3/5-5-5-X---|
yeah yeah
ohhh
yeah yeah
yeah


[Solo]

E|------------------------------.--.-----12-10-10-------------|
B|-------10------------------.-13-10-13b----------12\---------|
G|-5//12----12-14\--X-X-X-X-12------------------------X-X-X-X-|
D|-3//--------------X-X-X-X---------------------------X-X-X-X-|
A|------------------------------------------------------------|
D|------------------------------------------------------------|

e|--------------------------------------------------8p5-5-8p5-|
B|----------------------------------.--.—("mm now"------------|
G|-12-11-13b-13-13-12\--7/9-9-9-9--10--9--8-------------------|
D|----------------------5/7-7-7-7---8--7--6-------------------|
A|------------------------------------------------------------|
D|------------------------------------------------------------|

e|-5-8p5-5-8p5-5-9p5-5-9p5-5-9p5-5-8p5-5-9p5-5-8p5-5-9p5-5----|
B|------------------------------------------------------------|
G|----------------with variation------------------------------|
D|------------------------------------------------------------|
A|------------------------------------------------------------|
D|------------------------------------------------------------|

E|---------------------------5678------||--------------------|
B|---------------------------5678------||--chuck berry-------|
G|--improv till end of solo--567-------||---style bends------|
D|---------------------------567-------||----x4--------------|
A|---------------------------567-------||--------------------|
D|---------------------------5678------||--------------------|


[Bridge]

  X      0      0.     **
E|--------------------------------------------|
B|--------------------------------------------|
G|--------------------------------------------|
D|--------------------------------------------|
A|-X------0-----pm------0-3/5--0-3/5--0-3/5---|
D|-X------0------0------0-3/5--0-3/5--0-3/5---|

Yes I've finally found the reason
  X          X       X         X
I don't need an excuse
 X     0     X       X
I've got this time on my hands
 0          0     0.   0.   0.
You are the one to abuse
0.    0.    0.    **


[Chorus]

Play msin riff throughout

Yes I've finally found the reason
I don't need an excuse
I've got this time on my hands
You are the one to abuse
Yes I've finally found the reason
I don't need an excuse
I've got this time on my hands
  Mmm  owww
I've got this time on my hands
I've got this time on my hands
I've got this
You are the one to abuse
I've got this
I've got this
I've got this time on my hands
I've got this
I've got this
You are the one to abuse
One to abuse
The to abuse


[Outro]

  (x5, x1 slower)
E|-------------------------|
B|-------------------------|
G|-------------------------|
D|--5/7-7-7-X--------------|
A|--3/5-5-5-X—-3/5-5-5-X---|
D|-------------3/5-5-5-X---|

Ohh
Mmm yeah
Yeah yeah

E|---------------|
B|---------------|
G|---------------|
D|----0-2--------|
A|-0h2-----------|
D|---------------|



************************************

| x  Dead note
| h  Hammer-on
| p  Pull-off
| b  Bend
| /  Slide up
| \  Slide down

************************************
Suggest correction
comments
print report bad tab
22 comments total. Showing first comments. show 1 bad comment
-1 reply
dan_the_pie 161 May 14, 2006 06:01 PM

whats it matter, dick head shit ass cock? go to hell

+1 reply
mousepad 10 May 14, 2006 06:10 PM

trev is a flamer. he wants to marry boys becasue they have peckers

guest
You may want to rate the tab now too:
select rating
Wanna post a correction for this tab? Suggest correction