Oops, an error
Loading. Please wait.

A Waste Of Space chords

version 1
version 1

Whole song

Interactive

799 views 6 this week
no commentswrite comment
1 2 3 4 5
x 3
add to favorites
×
Save as Personal and add changes to this tab that will be seen only by you. Learn more ›
×
You can save this tab as Personal to edit and correct it or add notes. All changes will be seen only by you. Learn more »
launch autoscroll
font size
0
reset
transpose
0
reset
simplify chords
display chords
guitar tuner
edit
Autoscroll
slow
fast
+/-
esc
set tempo
stop
Author
Strumming
There is no strumming pattern for this song yet. and get +5 IQ
Song: "A Waste of Space" by DayShell
Album: DayShell (2013)

Tuning: Standard
Capo: N/A

Chords:
Em     - 022000
Dsus2  - xx0230
C      - 332010
B7     - x21200

Tabbed by lafawafa, hope you all enjoy!

------------------

Intro, Verse 1, and Verse 2:

These parts are played the same. The lead from the Intro is not included
(It can be found in the Intro tab here on UG).

e|-----------------0------------------------------0------------------------------
B|--------0----------0-----0--------------0---------0-----0-----0--------0-------
G|----0-----0---0------0-----0---0----0-----0---0-----0-----0--------0-----0---0-
D|--2---2-----2----1-----1-----1----0---0-----0----------------------------------
A|------------------------------------------------4-----4-----4----3---3-----3---
E|-------------------------------------------------------------------------------

------------0---------------------------------|
--------0------------0---------------0--------| 
----0-----0------0-----0---0-----0-----0---0--| Verses 1 and 2 play this entire
---------------2---2-----2---2-2---2-----2----| part twice.
--2---2---------------------------------------|
----------------------------------------------|

Chorus:

When playing the chorus that transitions to the bridge, don't play the last Em.
Simply change from B7 to C.

Em          Dsus2
Lay me down, on the sea,
             Em
You're the crook side of criminal that hardly can breathe
        C           B7              Em
And I know, you've done this before

Bridge:

              C          Dsus2      Em
You took the best of me, yeah-eah, whoa
     C          Dsus2      Em
The best of me, yeah-eah, whoa
              C          Dsus2      Em
You took the best of me, yeah-eah, whoa
     C           B7
The best of me, yeah-eah

Final Chorus:

Em          Dsus2
Lay me down, on the sea,
             Em
You're the crook side of criminal that hardly can breathe
           C             Dsus2
Don't you see me now, I'm on my knees,
     Em
You say I'm invincible, but they all seen me bleed
        C           B7              Em
And I know, you've done this before 

------------------

The song in order of parts:

- Intro
- Verse 1
- Chorus
- Verse 2
- Chorus
- Bridge
- Final Chorus

            
            
Suggest correction
Creating personal tab
Creating personal tab
You can edit any tab online and save it as your Personal.

You can edit, replace or remove any tab part or add personal notes – all changes will be seen only by you.

Personal tabs can be accessed anytime from any device, even offline.
Learn more »
Give kudos to tab author, rate the tab!
1 2 3 4 5
comments
print report bad tab
guest
You may want to rate the tab now too:
select rating
Wanna post a correction for this tab? Suggest correction