Oops, an error
Loading. Please wait.

Not Coming In Tab

version 1
version 1

Whole song

Interactive

7,076 views 12 this week
3 commentsread comments
1 2 3 4 5
excellent!
x 11
add to favorites
launch autoscroll
font size
0
reset
how to read this tab
guitar tuner
Tab Pro tools
  • play this tab
  • loop segment
  • change instrument
  • show fretboard
  • metronome
×
Best way to learn
"Not Coming In"
Autoscroll
slow
fast
+/-
esc
set tempo
stop
Contributor
Difficulty
Tuning
intermediate
B F# B E G# C#
Not Coming In Tabs
Artist: Dayshell
Album: Self-Titled
Tab by: http://www.youtube.com/jamesmouamusic

Dayshell - Not Coming In (Official Lyric Video)
http://www.youtube.com/watch?v=N81iI393gUc

Dayshell FB page...
https://www.facebook.com/DayShellMusic

Dayshell Sumerian Records page...
http://sumerianrecords.com/artist/details/id:37/


b: bend
/: slide
*: palm mute
h: hammer on
~: let it ring
p: pinch harmonic
/////: picking tremolo




INTRO(Repeat x2):
C#||---------------------------------------------------------------------|
G#||---------------------------------------------------------------------|
 E||-------------0-------------------------------------------------------|
 B||-----10--------------------------------10----------------------------|
F#||---8-------3------12---10---12---10h12-------------------------------|
 B||-8-------3-----------0----0----0-------------------------------------|
                         *    *    *

C#||---------------------------------------------------------------------|
G#||---------------------------------------------------------------------|
 E||------------------------------------------------------------------0--|
 B||------------------------10-----------------------10-------10---------|
F#||---12---10---12---10h12------12---10---12--10h12--------8-------3----|
 B||-0----0----0----0---------------0----0---0------------8-------3------|
     *    *    *    *               *    *   *  * *

C#||----|
G#||----|
 E||----|
 B||-0~-|
F#||-0~-|
 B||-0~-| (Play 2nd time only)



[VERSE]



CHORUS:
C#||---------------------------------------------------------------------|
G#||---------------------------------------------------------------------|
 E||-------------0-------------------------------------------------------|
 B||-----10--------------------------------------------------------------|
F#||---8-------3---------------------------------------------------------|
 B||-8-------3------0-00-00-0000---0-0-00-0000---0-0-00-0000-------------|

C#||---------------------------------------------------------------------|
G#||---------------------------------------------------------------------|
 E||---------------------------------------------------------------------|
 B||-14-14-17-12-12-12---14-1414-1414-14141414---17-17-1717-17171717-----|
F#||-x--x--x--x--x--x----x--x-x--x-x--x-x-x-x----x--x--x-x--x-x-x-x------|
 B||-12-12-15-10-10-10---12-1212-1212-12121212---15-15-1515-15151515-----|

C#||---------------------------------------------------------------------|
G#||---------------------------------------------------------------------|
 E||-----------------------------------0---------------------------------|
 B||-12-12-1212-12121212-------10--------------0~------------------------|
F#||-x--x---x-x--x-x-x-x-----8-------3---------0~------------------------|
 B||-10-10-1010-10101010---8-------3-----------0~------------------------|



[VERSE]



CHORUS:
C#||---------------------------------------------------------------------|
G#||---------------------------------------------------------------------|
 E||-------------0-------------------------------------------------------|
 B||-----10--------------------------------------------------------------|
F#||---8-------3---------------------------------------------------------|
 B||-8-------3------0-00-00-0000---0-0-00-0000---0-0-00-0000-------------|

C#||---------------------------------------------------------------------|
G#||---------------------------------------------------------------------|
 E||---------------------------------------------------------------------|
 B||-14-14-17-12-12-12---14-1414-1414-14141414---17-17-1717-17171717-----|
F#||-x--x--x--x--x--x----x--x-x--x-x--x-x-x-x----x--x--x-x--x-x-x-x------|
 B||-12-12-15-10-10-10---12-1212-1212-12121212---15-15-1515-15151515-----|

C#||---------------------------------------------------------------------|
G#||---------------------------------------------------------------------|
 E||-----------------------------------0---------------------------------|
 B||-12-12-1212-12121212-------10----------------10--------12------------|
F#||-x--x---x-x--x-x-x-x-----8-------3---------8--------10---------------|
 B||-10-10-1010-10101010---8-------3---------8-------10------------------|


SOLO:
C#||---------------------------------------------------------------------|
G#||---------------------------------------------------------------------|
 E||-10-10-10p-10-10-10-10p-10-------------------------------------------|
 B||---------------------------10-10-10p-10-10-10-10p-10-----------------|
F#||---------------------------------------------------------------------|
 B||---------------------------------------------------------------------|

C#||---------------------------------------------------------------------|
G#||---------------------------------------------------------------------|
 E||---------------------10-10p-10p-10p-9p----12-12-12-12-10-12----------|
 B||-7-7-7-7-7-5-7-3~-2~-------------------10p---------------------------|
F#||---------------------------------------------------------------------|
 B||---------------------------------------------------------------------|

C#||---------------------------------------------------------------------|
G#||----------------------------------------------------------18---------|
 E||-12/14-14-14-17-14-14-14-14-14-17-14-14-14-14-14-14-17/19----17~-----|
 B||---------------------------------------------------------------------|
F#||---------------------------------------------------------------------|
 B||---------------------------------------------------------------------|


BRIDGE:
C#||--------------------------------------------|
G#||--------------------------------------------|
 E||----------10--------------------12----------|
 B||-12-10-12----12-10-----12-10-12----12-10----|
F#||--------------------------------------------|
 B||--------------------------------------------| (x4)
     *  *  *  *  *  *      *  *  *  *  *  *

C#||---------------------------------------------------------------------|
G#||---------------------------------------------------------------------|
 E||----------10------------------12-------------------------------------|
 B||-10h12-12----12-12---10h12-12----10-10-------------------------------|
F#||---------------------------------------------------------------------|
 B||---------------------------------------------------------------------|

C#||----------------------------------------------------------20////-17~-|
G#||----------18-------20-------20---------------17////18////------------|
 E||-17h19-19----19-19----19-19----17-17---19////------------------------|
 B||---------------------------------------------------------------------|
F#||---------------------------------------------------------------------|
 B||---------------------------------------------------------------------|


[End of "Are you fucking with me"] (x2)
C#||---------------------------------------------------------------------|
G#||---------------------------------------------------------------------|
 E||-------------0-------------------------------------------------------|
 B||-----10--------------------------------10----------------------------|
F#||---8-------3------12---10---12---10h12-------------------------------|
 B||-8-------3-----------0----0----0-------------------------------------|
                         *    *    *

C#||---------------------------------------------------------------------|
G#||---------------------------------------------------------------------|
 E||------------------------------------------------------------------0--|
 B||------------------------10-----------------------10-------10---------|
F#||---12---10---12---10h12------12---10---12--10h12--------8-------3----|
 B||-0----0----0----0---------------0----0---0------------8-------3------|
     *    *    *    *               *    *   *  * *

CHORUS:
C#||---------------------------------------------------------------------|
G#||---------------------------------------------------------------------|
 E||---------------------------------------------------------------------|
 B||---------------------------------------------------------------------|
F#||---------------------------------------------------------------------|
 B||-0-00-00-0000---0-0-00-0000---0-0-00-0000----------------------------|

C#||---------------------------------------------------------------------|
G#||---------------------------------------------------------------------|
 E||---------------------------------------------------------------------|
 B||-14-14-17-12-12-12---14-1414-1414-14141414---17-17-1717-17171717-----|
F#||-x--x--x--x--x--x----x--x-x--x-x--x-x-x-x----x--x--x-x--x-x-x-x------|
 B||-12-12-15-10-10-10---12-1212-1212-12121212---15-15-1515-15151515-----|

C#||---------------------------------------------------------------------|
G#||---------------------------------------------------------------------|
 E||---------------------------------------------------------------------|
 B||-12-12-1212-12121212-------141414---121212---------------------------|
F#||-x--x---x-x--x-x-x-x-------x-x-x---x-x-x-----------------------------|
 B||-10-10-1010-10101010-------121212---101010---------------------------|

C#||---------------------------------------------------------------------|
G#||---------------------------------------------------------------------|
 E||---------------------------------------------------------------------|
 B||-------------------------------------------141414---121212-----------|
F#||-------------------------------------------x-x-x----x-x-x------------|
 B||-000000000000-0-0-00000000--0-0-00000000---121212---101010-----------|
                       ****          ****

C#||---------------------------------------------------------------------|
G#||---------------------------------------------------------------------|
 E||---------------------------------------------------------------------|
 B||-------------------------------------------141414---121212-----------|
F#||-------------------------------------------x-x-x----x-x-x------------|
 B||-000000000000-0-0-00000000--0-0-00000000---121212---101010-----------|
                       ****          ****

C#||---------------------------------------------------------------------|
G#||---------------------------------------------------------------------|
 E||---------------------------------------------------------------------|
 B||-141414-121212-141414-171717----0~-----------------------------------|
F#||-x-x-x--x-x-x--x-x-x--x-x-x-----0~-----------------------------------|
 B||-121212-101010-121212-151515----0~-----------------------------------|

[END]
Thanks for checking out my tab! The video below is where this tab was used. I corrected 
some parts here and there. Make sure you check it out! Thank you!

http://www.youtube.com/watch?v=Ic_FUV9JXQo
comments
print report bad tab
3 comments total.
0 reply
blackhwoarang wrote on November 15 2013, 06:36 pm

awesome!
thank you!

0 reply
k.lainad wrote on February 3 2014, 10:26 pm

very nice

0 reply
jamestmoua wrote on September 10 2014, 09:53 pm

Sorry about the mess up guys! The part that starts with "12x14" should be on the F# string if that makes sense! Hope you guys enjoy and thanks for the ratings.

I want to post or [tab]
guest
You may want to rate the tab now too:
select rating
Please do not post tabs as comments. Select "correction" instead!