Oops, an error
Loading. Please wait.

Living chords

213 views 3 this week
no commentswrite comment
1 2 3 4 5
2 more votes to show rating
add to favorites
×
Save as Personal and add changes to this tab that will be seen only by you. Learn more ›
×
You can save this tab as Personal to edit and correct it or add notes. All changes will be seen only by you. Learn more »
launch autoscroll
font size
0
reset
transpose
0
reset
simplify chords
display chords
guitar tuner
edit
Autoscroll
slow
fast
+/-
esc
set tempo
stop
Strumming
There is no strumming pattern for this song yet. and get +5 IQ
Tuning: Half-Step Down

You gotta listen for the chord changes on this one, they're a little tricky. Also, 
look at the tab at the bottom for the lead sort of stuff.

Em

C                       D*                 G     G/F#
Take another drive from haunted streets to rocky beaches
Em                                 C
Out of state shows, house parties, hated home but it wanted me

G   G/F#        
So I should know

Em*

C              G      G/F#                  Em      C          
better than to resist what I know's inevitable

G  G/F#          Em     D         C
So I should know better than this now
Em C  G                Em      D      C
No, I never learned to give it up somehow.
Em   C    G

Em

C                       D                   G        G/F#
Take another drink from corner dive bars to basement scenes
Em                                  C                              
Moved out west to end up back east, got a career it didn't stick

G  G/F#          Em     D         C
So I should know better than this now
Em C  G             Em         D      C
No, I never learned to give it up somehow
Em  C   G

Em D  C             Em     C         G         
So    I should know better than this now
Em D  C                       Em     C            G 
So    I, I should have known, better, better than this now

           Em               D                     C
I tried to look, I tried to change, but just went back from where I came
         Em   C            G
Couldn't find  better than this

Em D C 
So   I should know better,
Em    C     G
Better than this. 


The two lead parts (marked with an *):
VERSE
   Em                 C               D               G       G/F#
eb|-------------------------------------------------------------------|
Bb|--------------<7>--------------------------------------------------|
Gb|--------------<7>--5-5-5-5-5-5-5-5-7-7-7-7-9-9-1111----------------|
Db|-------------------5-5-5-5-5-5-5-5-7-7-7-7-x-x-x-x-5-5-5-5-4-4-4-4-|
Ab|-2-2-2-2-2-2-------3-3-3-3-3-3-3-3-5-5-5-5-7-7-9-9-5-5-5-5-5-5-5-5-|
Eb|-0-0-0-0-0-0---------------------------------------3-3-3-3-2-2-2-2-|


THIS IS RIGHT BEFORE THE "SO I SHOULD KNOW" PART
  Em                  C                             G       G/F#
e|-------------------------------------------------|
B|-------------------------------------------------|
G|-9--9--9--9----11---12--12--12-12---12-----------|"So-o-o I should know
D|-x--x--x--x----x----x---x---x--x----x------------|
A|-7--7--7--7----9----10--10--10-10---10-----------|
E|-------------------------------------------------|
Suggest correction
Creating personal tab
Creating personal tab
You can edit any tab online and save it as your Personal.

You can edit, replace or remove any tab part or add personal notes – all changes will be seen only by you.

Personal tabs can be accessed anytime from any device, even offline.
Learn more »
Give kudos to tab author, rate the tab!
1 2 3 4 5
comments
print report bad tab
guest
You may want to rate the tab now too:
select rating
Wanna post a correction for this tab? Suggest correction