Oops, an error
Loading. Please wait.

Jesus Freak tab

version 6
version 6

Interactive

by dc Talk
1,507 views 3 this week
1 commentread comment
1 2 3 4 5
x 3
add to favorites
×
Save as Personal and add changes to this tab that will be seen only by you. Learn more ›
×
You can save this tab as Personal to edit and correct it or add notes. All changes will be seen only by you. Learn more »
launch autoscroll
font size
0
reset
how to read this tab
guitar tuner
edit
Autoscroll
slow
fast
+/-
esc
set tempo
stop
Author
intro
e------------------------------|
b------------------------------|
g---------8-8-7-7-6-6----------|
d-4--6-6--8-8-7-7-6-6----------|
a-4--6-6--6-6-5-5-4-4----------|
E-1--4-4-----------------------| 4x

verse
e------------------------------|
b------------------------------|
g-----6-6-3-3-3-3--------------|
d-3-3-6-6-3-3-3-3--------------|
a-3-3-4-4-1-1-1-1--------------|
E-1-1--------------------------|8x

chorus: on the chords that you play twice, just let them ring
e------------------------------|
b------------------------------|
g---------8--------------------|
d-3-3-6-6-8-8-8-10-------------|
a-3-3-6-6-6-8-8-10-------------|
E-1-1-4-4---6-6-8--------------| 4x

e------------------------------|
b------------------------------|
g------------------------------|
d-3-3-3-3----------------------|
a-3-3-3-3----------------------|
E-1-1-1-1----------------------|

Verse
Chorus 2x
verse

Bridge
e------------------------------|
b------------------------------|
g-7-7-7------------------------|
d-7-7-7-6----------------------|
a-5-5-5-6----------------------|
E-------4----------------------|4x
Chorus 3x

im not sure i got the bridge right, so im open to comments there the rest i think is 
good
I AM A JESUS FREAK

            
            
Suggest correction
Creating personal tab
Creating personal tab
You can edit any tab online and save it as your Personal.

You can edit, replace or remove any tab part or add personal notes – all changes will be seen only by you.

Personal tabs can be accessed anytime from any device, even offline.
Learn more »
Give kudos to tab author, rate the tab!
1 2 3 4 5
comments
print report bad tab
1 comment total.
+1 reply
dranz1212 10 Jan 15, 2008 11:45 AM

this sux

guest
You may want to rate the tab now too:
select rating
Wanna post a correction for this tab? Suggest correction