Oops, an error
Loading. Please wait.

What If I Stumble chords

version 3
version 3

Whole song

Interactive

by dc Talk
5,335 views 3 this week
no commentswrite comment
1 2 3 4 5
2 more votes to show rating
add to favorites
×
Save as Personal and add changes to this tab that will be seen only by you. Learn more ›
×
You can save this tab as Personal to edit and correct it or add notes. All changes will be seen only by you. Learn more »
launch autoscroll
font size
0
reset
transpose
0
reset
simplify chords
display chords
guitar tuner
edit
Autoscroll
slow
fast
+/-
esc
set tempo
stop
Author
Strumming
There is no strumming pattern for this song yet. and get +5 IQ
Artist: DC Talk
Album: Jesus Freak
Song: What If I Stumble

~ = hold the note


Intro:

    Dm                                 F      C  G   
E:-------------------------------------------------------I
B:-10~-------10---------------------------------13-10----I
G:------9-10----12~-10-9-10-12-10-9-10-9-10-9-7----------I
D:-------------------------------------------------------I
A:-------------------------------------------------------I
E:-------------------------------------------------------I

    Dm                                 F      C
E:-------------------------------------------------------I
B:-10~-------10------------------------------------------I
G:------9-10----12~-10-9-10-12-10-9-10-9-10-9-7~---------I
D:-------------------------------------------------------I
A:-------------------------------------------------------I
E:-------------------------------------------------------I


Verse 1:
Dm                           F                 C    G           
Is this one for the people? Is this one for the Lord?
Dm                        F              C
Do I simply serenade for things I must afford?
Dm                            F                   C    G
You can jumble them together, my conflicts still remain.
Dm                           F                  C
Holiness is calling, in the midst of courting fame.

Pre-chorus:
Dm                F               C     C2      
'Cause I see the trust in there eye's, although the sky is fallin'.
Dm               F             C     C2
They need Your love in there lives, Compromise is calling.

Chorus:
Bb                     F         C
What if I stumble, and what if I fall?
Dm                                 F          C       G
What if I lose my step and I make fools of us all?
Bb                                 F             C
Will the love continue, when the walk becomes a crawl?
Dm            F             C           G      
What if I stumble and what if I fall?

(play the intro through this part of the second part of the chorus{down)}

Dm      
What if I stumble what If I fall?

You never turned in the heat of it all.

what if I stumble what if I fall?

Verse 2:
Dm                            F          C    G   
Father please forgive me, for I cannot compose.
Dm                                    F                F
The fear that lives within me, or the rate at which it grows.
Dm                                F               C        G
If struggle has a purpose, on the narrow road you carved.
Dm                                 F         C
Why do I dread my trespasses will leave a deadly scar.
Dm              F             C    C2
Do they see the fear in my eyes? Are they so revealing?
Dm          F          C         C2
This time I cannot disguise, All the doubt I'm feelin'.

(repeat chorus)

~ = hold the note

Solo:

E:-13~-16-14-13----------------------------------------------------------I
B:--------------16~-14-16-18~-18-16-18-16~-14-13-14-16-14-13-14-13-14-13-I
G:-----------------------------------------------------------------------I
D:-----------------------------------------------------------------------I
A:-----------------------------------------------------------------------I
E:-----------------------------------------------------------------------I
E:---------13-14-16~-16-14-13------------------------------10------------I
B:-11-------------------------16~-14-16-18~-18-16-14-13-14----14-13-14---I
G:----13~----------------------------------------------------------------I
D:-----------------------------------------------------------------------I
A:-----------------------------------------------------------------------I
E:-----------------------------------------------------------------------I

E:----------------------------15-17--------------------------------------I
B:-11-14-13-14-13-16-14-15-17--------------------------------------------I
G:-----------------------------------------------------------------------I
D:-----------------------------------------------------------------------I
A:-----------------------------------------------------------------------I
E:-----------------------------------------------------------------------I

Bridge:
F                  C           
Everyone's got to crawl when you know that,
                    Dm                
you're up against a wall, it's about to fall.
F                  C                      Dm
Everyone's got ta crawl when you know that, woohoo! o yeah.

F                         C    Dm
I hear you whispering my name, You say.
F                          C         Dm 
My love for you will never change, never change.

(repeat chorus)

THE END

Tabber: Robby Sheets
age: 15

            
            
Suggest correction
Creating personal tab
Creating personal tab
You can edit any tab online and save it as your Personal.

You can edit, replace or remove any tab part or add personal notes – all changes will be seen only by you.

Personal tabs can be accessed anytime from any device, even offline.
Learn more »
Give kudos to tab author, rate the tab!
1 2 3 4 5
comments
print report bad tab
guest
You may want to rate the tab now too:
select rating
Wanna post a correction for this tab? Suggest correction