Oops, an error
Loading. Please wait.

Binnen Zonder Kloppen tab

by De Dijk
2,221 views 3 this week
no commentswrite comment
1 2 3 4 5
2 more votes to show rating
add to favorites
×
Save as Personal and add changes to this tab that will be seen only by you. Learn more ›
×
You can save this tab as Personal to edit and correct it or add notes. All changes will be seen only by you. Learn more »
launch autoscroll
font size
0
reset
how to read this tab
guitar tuner
edit
Autoscroll
slow
fast
+/-
esc
set tempo
stop
Author
Difficulty
De Dijk - Binnen zonder kloppen   Tabs by Roland Tommy



  Csus2  F7 Esus2  G  Ebsus2  Bb*  Dsus2   C*    Dm   C   Bb  F
E  3     1    7	   3    6     6     5      8     5    3   1   1	
B  3     1    7    3    6     6     5      8     6    5   3   1
G  5     2    9    4    8     7     7      9     7    5   3   2
D  5     1    9    5    8     8     7      10    7    5   3   3
A  3     3    7    5    6     8     5      10    5    3   1   3 
E  3     1    7    3    6     6     5      8     5    3   1   1


INTRO
    Am     F  (Am)  G      Em (Am-Bm-C-) D     Am        G 
^ ^ Oehoehoe  ^^^^  Oehhoehoe    ^^^^    Oehoehoe   ^^^^ ^^^^ ---- 

Dit is het appegio (tokkel) schema:

         			  3x				   1x	  	
E |--------------------------------|--------------------------------|--
B |--------------------------------|--------------------------------|--
G |-----------------2--------------|--------------------------------|--
D |----2-3.-2---3-3-----3.-2-------|----2-3.-2-------2---3-2--------|--
A |-3.-----------------------------|-2.----------2-2----------------|--
E |--------------------------------|--------------------------------|--

E |--------------------------------|--------------------------------|--
B |--------------------------------|--------------------------------|--
G |--------------------------------|--------------------------------|--
D |----5-7.-5-------5---7.-5-------|----5-7.-5-------3---5.-3-------|--
A |-5.----------5-5----------------|-6.----------5-5----------------|--
E |--------------------------------|--------------------------------|--

E |--------------------------------|--------------------------------|--
B |--------------------------------|--------------------------------|--
G |--------------------------------|--------------------------------|--
D |----3-5.-3-------3---5.-3-------|----2-3.-2--------2---3.-2------|--
A |-5.----------5-5----------------|-3.----------3--3---------------|--
E |--------------------------------|--------------------------------|--


Csus2                  F7 
De straat is grijs, de nacht beneveld
Csus2                  Esus2	 
binnen hou ik het niet uit
G                   Ebsus2        Bb*	  
Daar denk ik steeds aan toen die avond
Dsus2 (alleen 1e keer) C
ik schrik op van elk geluid

Csus2             F7 
Ik hoor een deur open en dicht gaan
Csus2                      Esus2	 
ik hoor het kraken van een tree
G                   Ebsus2        Bb*	  
en al m'n hoop is op de deurknop
Bb*   			C*
maar die gaat niet naar benee.
 
        Dm                Dm   C    Bb
Ze kwam binnen zonder kloppen
..      Dm                     C*   C*  (Bb* Bb*)
ze kwan binnen zonder kloppen
        Dm      C  Bb
ze kwam binnen,
        Dm      C  Bb
ze kwam binnen,
        F                             G
ze kwam binnen zonder kloppen en ging weg zonder een woord.
 
Ik was alleen en niet gelukking
Ik brandde langzaam achteruit
En iedere dag, meer vraag dan antwoord
Een nieuwe krant, een oud geluid
 
Ik wou dood, ik wou begraven
met veel bloemen en bezoek
En opeens, stond zij daar voor me
schopte haar schoenen in de hoek.
 
Ze kwam binnen zonder kloppen
ze kwan binnen zonder kloppen
ze kwam binnen, ze kwam binnen
ze kwam binnen zonder kloppen en ging weg zonder een woord.
 
intro

De avond valt in duizend stukken
op de straten van de stad
Met bonzend hart als wichelroede
zoek ik mijn verloren schat
 
Maar het leidt tot niets, lood om oud ijzer
welke deur ik ook probeer
ze zijn dicht, of ze gaan open
maar nooit meer, nooit meer, nooit meer als die keer
 
Ze kwam binnen zonder kloppen
ze kwan binnen zonder kloppen
ze kwam binnen, ze kwam binnen
ze kwam binnen zonder kloppen en ging weg zonder een woord.
 
intro

Suggest correction
Creating personal tab
Creating personal tab
You can edit any tab online and save it as your Personal.

You can edit, replace or remove any tab part or add personal notes – all changes will be seen only by you.

Personal tabs can be accessed anytime from any device, even offline.
Learn more »
Give kudos to tab author, rate the tab!
1 2 3 4 5
comments
print report bad tab
guest
You may want to rate the tab now too:
select rating
Wanna post a correction for this tab? Suggest correction