Oops, an error
Loading. Please wait.

All Good bass

version 1
version 1

Whole song

Interactive

13 views 1 this week
no commentswrite comment
1 2 3 4 5
2 more votes to show rating
add to favorites
×
Save as Personal and add changes to this tab that will be seen only by you. Learn more ›
×
You can save this tab as Personal to edit and correct it or add notes. All changes will be seen only by you. Learn more »
launch autoscroll
font size
0
reset
guitar tuner
edit
Autoscroll
slow
fast
+/-
esc
set tempo
stop
Artist: De La Soul
Song: All Good
Tuning - Standard
tabbed by electricbunny

[Hook]  
G|--------------------------------|--------------------------------|
D|--------------------------------|--------------------------------|
A|----------------0---------0-----|0---------------0-----------0---|
E|--------------------0---2-------|--------------------------------|
 
G|--------------------------------|--------------------------------|
D|0---------------0---------------|0---------------2-0-------------|
A|--------------------------------|--------------------3-0---------|
E|--------------------------------|--------------------------------|
 
G|--------------------------------|--------------------------------|
D|--------------------------------|--------------------------------|
A|0-------------0-0-------0-------|0---------------0---0-3---------|
E|--------------------------------|------------------3-------------|
 
G|--------------------------------|--------------------------------|
D|0---------------0---0-----------|0---------------2-0-------------|
A|--------------------------------|--------------------3-0---------|
E|--------------------------------|--------------------------------|

[Verse 1] 
G|--------------------------------|--------------------------------|
D|--------------------------------|--------------------------------|
A|0---------------0-----------0---|0---------------0-----------0---|
E|------------------------3-------|--------------------------------|
 
G|--------------------------------|--------------------------------|
D|0---------------0---------------|0---------------2-0-------------|
A|--------------------------------|--------------------3-0---------|
E|--------------------------------|------------------------3-------|
 
G|--------------------------------|--------------------------------|
D|--------------------------------|--------------------------------|
A|0---------------0---------------|0---------------0-----0---------|
E|----------------------------3---|--------------------3-----------|
 
G|--------------------------------|--------------------------------|
D|0-------------0-0-----0---------|0---------------2-0-------------|
A|--------------------------------|--------------------3-0---------|
E|--------------------------------|--------------------------------|

[Verse 2] 
G|--------------------------------|--------------------------------|
D|--------------------------------|--------------------------------|
A|0-------------0-0-----0-0-------|0---------------0---0-0---------|
E|--------------------------3-----|------------------3-------------|
 
G|--------------------------------|--------------------------------|
D|----------------0-----0---------|0---------------0---0-2---------|
A|--------------------------------|--------------3---3-------------|
E|--------------------------------|--------------------------------|
 
G|--------------------------------|--------------------------------|
D|--------------------------------|--------------------------------|
A|----------------0---------0-----|0---------------0---0---0-------|
E|--------------------0---3-------|------------------3---3---------|
 
G|--------------------------------|--------------------------------|
D|0---------------0-----0---------|0---------------2-0-------------|
A|--------------------------------|--------------------3-0---------|
E|--------------------------------|--------------------------------|
 
G|--------------------------------|--------------------------------|
D|--------------------------------|--------------------------------|
A|0---------------0---------0-----|0---------------0---0-3---------|
E|--------------------0---3-------|------------------3-------------|
 
G|--------------------------------|--------------------------------|
D|0---------------0---0-----------|0-------------------0-2---------|
A|--------------------------------|----------------0-3-------------|
E|--------------------------------|--------------------------------|
 
G|--------------------------------|--------------------------------|
D|--------------------------------|--------------------------------|
A|0---------------0-----------0---|0---------------0-----------0---|
E|------------------------3-------|--------------------------------|
 
G|--------------------------------|--------------------------------|
D|0---------------0-----0---------|0---------------2-0-------------|
A|--------------------------------|--------------------3-0---------|
E|--------------------------------|------------------------3-------|
 
G|--------------------------------|--------------------------------|
D|--------------------------------|--------------------------------|
A|0---------------0---------0-----|0---------------0-----0---------|
E|--------------------0---3-------|------------------3-3-----------|
 
G|--------------------------------|--------------------------------|
D|0-------------0-0-----0---------|----------------2-------0-2-----|
A|--------------------------------|----------------------3---------|
E|--------------------------------|--------------------------------|
 
G|--------------------------------|--------------------------------|
D|--------------------------------|--------------------------------|
A|0-------------0-0-----0-0-------|0---------------0---0-0---------|
E|--------------------------3-----|------------------3-------------|
 
G|--------------------------------|--------------------------------|
D|0---------------0---------------|0---------------2-----0---------|
A|------------------3-0-----------|--------------------3-----------|
E|----------------------3---------|--------------------------------|
 
G|--------------------------------|--------------------------------|
D|--------------------------------|--------------------------------|
A|0---------------0---------0-----|0---------------0---0-0---------|
E|--------------------0---3-------|------------------3-------------|
 
G|--------------------------------|--------------------------------|
D|0---------------0-----0---------|0---------------2-0-------------|
A|--------------------------------|--------------------3-0---------|
E|--------------------------------|--------------------------------|

[Hook] 
G|--------------------------------|--------------------------------|
D|--------------------------------|--------------------------------|
A|0---------------0---------0-----|0---------------0---0-3---------|
E|--------------------0---3-------|------------------3-------------|
 
G|--------------------------------|--------------------------------|
D|0---------------0---0-----------|0-------------------0-2---------|
A|--------------------------------|----------------0-3-------------|
E|--------------------------------|--------------------------------|
 
G|--------------------------------|--------------------------------|
D|--------------------------------|--------------------------------|
A|0---------------0-----------0---|0---------------0-----------0---|
E|------------------------3-------|--------------------------------|
                                                                    
G|--------------------------------|--------------------------------|
D|0---------------0-----0---------|0---------------2-0-------------|
A|--------------------------------|--------------------3-0---------|
E|--------------------------------|------------------------3-------|

[Bridge] 
G|--------------------------------|--------------------------------|
D|--------------------------------|--------------------------------|
A|0---------------0---------0-----|0---------------0-----0---------|
E|--------------------0---3-------|------------------3-3-----------|
 
G|--------------------------------|--------------------------------|
D|0-------------0-0-----0---------|0-----------0---2-0---2---------|
A|--------------------------------|--------------------3-----------|
E|--------------------------------|--------------------------------|
 
G|--------------------------------|--------------------------------|
D|--------------------------------|--------------------------------|
A|0-------------0-0-----0-0-------|0---------------0---0-0---------|
E|--------------------------3-----|------------------3-------------|
 
G|--------------------------------|--------------------------------|
D|0-------------0-0---0-----------|0-------------------0-2---------|
A|--------------------------------|----------------0-3-------------|
E|--------------------------------|--------------------------------|

[Verse 3] 
G|--------------------------------|--------------------------------|
D|--------------------------------|--------------------------------|
A|0---------------0---------0-----|0---------------0-----0---------|
E|----------------------------3---|--------------------3-----------|
 
G|--------------------------------|--------------------------------|
D|0---------------0-----0---------|0-------------------0-2---------|
A|--------------------------------|----------------0-3-------------|
E|--------------------------------|--------------------------------|
 
G|------------------------0-2-----|--------------------------------|
D|--------------------------------|--------------------------------|
A|0---------------0---------------|0---------------0---0-3---------|
E|--------------------0-----------|------------------3-------------|
 
G|--------------------------------|--------------------------------|
D|0---------------0---0-----------|--------------------0-2---------|
A|--------------------------------|----------------0-3-------------|
E|--------------------------------|--------------------------------|
 
[Hook]
G|--------------------------------|--------------------------------|
D|--------------------------------|--------------------------------|
A|0---------------0-----------0---|0---------------0-----------0---|
E|------------------------3-------|--------------------------------|
 
G|--------------------------------|--------------------------------|
D|0---------------0-----0---------|0---------------2-0-------------|
A|--------------------------------|--------------------3-0---------|
E|--------------------------------|------------------------3-------|
 
G|--------------------------------|--------------------------------|
D|--------------------------------|--------------------------------|
A|0---------------0---------0-----|0---------------0-----0---------|
E|--------------------0---3-------|------------------3-3-----------|
 
G|--------------------------------|--------------------------------|
D|0-------------0-0-----0---------|0-----------0---2-0---2---------|
A|--------------------------------|--------------------3-----------|
E|--------------------------------|--------------------------------|
 
G|--------------------------------|--------------------------------|
D|--------------------------------|--------------------------------|
A|0-------------0-0-----0-0-------|0---------------0---0-0---------|
E|--------------------------3-----|------------------3-------------|
 
G|--------------------------------|--------------------------------|
D|0-------------0-0---0-----------|0-------------------0-2---------|
A|--------------------------------|----------------0-3-------------|
E|--------------------------------|--------------------------------|
 
G|--------------------------------|--------------------------------|
D|--------------------------------|--------------------------------|
A|0---------------0---------0-----|0---------------0-----0---------|
E|----------------------------3---|--------------------3-----------|
 
G|--------------------------------|--------------------------------|
D|0---------------0-----0---------|0-------------------0-2---------|
A|--------------------------------|----------------0-3-------------|
E|--------------------------------|--------------------------------|
 
G|--------------------------------|
D|--------------------------------|
A|0---------------0---------0-----|
E|--------------------0---3-------|

            
            
Suggest correction
Creating personal tab
Creating personal tab
You can edit any tab online and save it as your Personal.

You can edit, replace or remove any tab part or add personal notes – all changes will be seen only by you.

Personal tabs can be accessed anytime from any device, even offline.
Learn more »
Give kudos to tab author, rate the tab!
1 2 3 4 5
comments
print report bad tab
guest
You may want to rate the tab now too:
select rating
Wanna post a correction for this tab? Suggest correction