Oops, an error
Loading. Please wait.

Ergens Onderweg Tab

1,490 views 9 this week
no commentswrite comment
1 2 3 4 5
excellent!
x 3
add to favorites
launch autoscroll
font size
0
reset
how to read this tab
guitar tuner
Autoscroll
slow
fast
+/-
esc
set tempo
stop
Help us to improve Ultimate-Guitar.com Take our survey!
×
Author
el_jello 274
oals Mr. Vander linden al heeft bekend gemaakt dat men capo op 5 zet, is
hier toch de versie zonder (voor mensen die dat spul nooit terugvinden)

Main Riff (zonder capo):

e---------------------------|---------------------------|
B---0-----3-----------------|---0---------------0-------|
G-2---2-0-----------0-------|-2---2-0-------------0-----|
D---------------------0-----|---------2-----------------|
A---------------------------|---------------------------|
E---------------------------|---------------------------|

Main Riff (met capo):

a---------------------------|---------------------------|
e---------------------------|---------------------------|
C---------2-----------------|---------------------------|
G-2-4-2-0-----------0-------|-2-4-2-0-----------4-0-----|
D---------------------0-----|---------2-----------------|
A---------------------------|---------------------------|

Basisakkoorden (zonder capo):     Basisakkoorden (met capo):

  G  D7sus4  Am7   C                D  A7sus4  Em7   G

e-3----3------0----0--            a-2----0------0----3--
B-0----3------1----1--            e-3----3------3----0--
G-0----2------0----0--            C-2----0------0----0--
D-0----0------2----2--            G-0----2------2----0--
A-2----x------0----3--            D-x----0------2----2--
E-3----x------x----x--            A-x----x------0----3--

Break:

e-3-/-10-\-3-/-10b12r10-\-3-/-10-
B--------------------------------
G--------------------------------
D--------------------------------
A--------------------------------
E--------------------------------

Breakakkoorden (zonder capo):     Breakakkoorden (met capo):

e-3----2----3----2-----------     a-2(0)--0(2)--3(2)--0(2)--
B-0----3----1(0)-3-----------     e-3-----2-----3-----2-----
G-0(2)-2(4)-0----2(4)--------     C-2-----2-----0-----2-----
D-0----0----x----0-----------     G-0-----0-----0-----0-----
A-2----x----3----x-----------     D-x-----x-----x-----x-----
E-3----x----x----x-----------     A-x-----x-----x-----x-----


-===========================================================================-

  Main Riff (2x)

Hoe lang is het al                      (bass)
Zo lang is het al
Ben ik anders dan
Je inwonende man

Ken je mijn vrouw al                    (bass & main riff)
Ik ken ze al lang
Denk je nu en dan
Aan al wat niet meer kan

Tot ergens onderweg                     (bass & basisakkoorden)
Ergens onderweg                           zonder: G D(7sus4) Am7 C
Let niet op wat ik zeg                    met:    D A(7sus4) Em7 G
Tot ergens onderweg

In een dom moment                       (bass & main riff)
Van sluipend sentiment
Ben je weer van mij
En ik dan weer je vent

Tot ergens onderweg                     (bass & basisakkoorden)
Ergens onderweg                           zonder: G D(7sus4) Am7 C
Ik heb niets gezegd                       met:    D A(7sus4) Em7 G
Tot ergens onderweg

Je bent mooier dan ooit tevoren         (bass & basisakkoorden)
Ik ben uitgeput en ongeschoren            zonder: G D(7sus4) Am7 C
Je bent mooier dan ik kon dromen          met:    D A(7sus4) Em7 G
Ik ben moe en altijd overal onderweg

  Break                                 (bass & breakakkoorden)

In een dom moment                       (bass & main riff)
Van sluipend sentiment
Ben ik weer de vent
Die al je kleren kent

 

Tot ergens onderweg                     (bass & basisakkoorden)
Ergens onderweg                           zonder: G D(7sus4) Am7 C
Alles is gezegd                           met:    D A(7sus4) Em7 G
Tot ergens onderweg

Woohohohohohohohoooo                    (bass & basisakkoorden)
Woohohohohohohohoooo
Woohohohohohohohoooo
Woohohohohohohohoooo

Ergens onderweg                         (bass & basisakkoorden)
Ergens onderweg
Ik heb niets gezegd
Tot ergens onderweg

Woohohohohohohohoooo (fade out)         (bass & basisakkoorden)


-===========================================================================-

Speciaal bedankje voor:
Mr. Vander linden (om zijn liedje uit de doeken te doen)

Op onderstaande website kun je nog meer De Mens-gekte leren spelen:

http://www.geocities.com/gitaarmens
Suggest correction
What's this?
You can suggest a correction to this tab. Community and Mods will review your correction and vote to approve or reject it.
comments
We did not receive enough feedback on this tab! Please rate:
print report bad tab
1 2 3 4 5
guest
You may want to rate the tab now too:
select rating
Please do not post tabs as comments. Select "correction" instead!