Oops, an error
Loading. Please wait.

Mevrouw Telefoon Tab

84 views 1 this week
no commentswrite comment
1 2 3 4 5
excellent!
x 1
add to favorites
launch autoscroll
font size
0
reset
how to read this tab
guitar tuner
Tab Pro tools
  • play this tab
  • loop segment
  • change instrument
  • show fretboard
  • metronome
Autoscroll
slow
fast
+/-
esc
set tempo
stop
                                   DE MENS
                                  -=======-
Titel: Mevrouw Telefoon
Album: Liefde (2001)
-===========================================================================-

e-----------------------0-----------------------------------|
B-----3---2-----0-----0----2-----0-------3--------------2---|
G-------4-----2----------------2-------0-------0----------0-|
D---4-------2----------------0-------0-------0---0----2-----|
A-2-------0---------2-------------------------------1-------|
E-----------------0--------2-------3-------3----------------|

e-----------------------0---------|---------------------------------|
B-----3---2-----0-----0---------0-|-----3---2-----0-------0-------0-|
G-------4-----2---------------4---|-------4-----2-------4-------4---|
D---4-------2---------------------|---4-------2---------------------|
A-2-------0---------2-------2-----|-2-------0---------2-------2-----|
E-----------------0-------0-------|-----------------0-------0-------|

  Mevrouw telefoon                  Mooier dan ik ze droom


e-----------------------0---------|-------------------------|
B-----3---2-----0-----0---2-----0-|-------3-------------2---|
G-------4-----2---------------2---|-----0-------0---------0-|
D---4-------2---------------0-----|---0-------0---0---2-----|
A-2-------0---------2-------------|-----------------1-------|
E-----------------0-------2-------|-3-------3---------------|

  Mevrouw telefoon meteen zonder condoom


e-----------------------0---------|-----------------------0---------|
B-----3---2-----0-----0---------0-|-----3---2-----0-----0---------0-|
G-------4-----2---------------4---|-------4-----2---------------4---|
D---4-------2---------------------|---4-------2---------------------|
A-2-------0---------2-------2-----|-2-------0---------2-------2-----|
E-----------------0-------0-------|-----------------0-------0-------|

  Ik ben haar stoutste zoon         Toch wordt ik vaak beloond


e-----------------------0---------|-----------------------------2---|
B-----3---2-----0-----0---2-----0-|-------3-------------2-------3---|
G-------4-----2---------------2---|-----0-------0---------0---2---2-|
D---4-------2---------------0-----|---0-------0---0---2-----0-------|
A-2-------0---------2-------------|-----------------1---------------|
E-----------------0-------2-------|-3-------3-----------------------|

  Mevrouw telefoon als in een koortsdroom


e---------------0-------------2---|---------------0-------------2---|
B-----2-------3-------3-------3---|-----2-------3-------3-------3---|
G-----2-----2-----------0---2---2-|-----2-----2-----------0---2---2-|
D---4---4-----------2-----0-------|---4---4-----------2-----0-------|
A-----------------0---------------|-----------------0---------------|
E-2-------3-----------------------|-2-------3-----------------------|

  E?n plus ??n is twee              Twee plus ??n is drie


e---------------0---------|-------0-------------------------|
B-----2-------3-------3---|---------------0-----3---2-----2-|
G-----2-----2-----------0-|-----0-------2---------0-----0---|
D---4---4-----------2-----|-----------0-------0-------2-----|
A-----------------0-------|---2---------------------1-------|
E-2-------3---------------|-0-------2-------3---------------|

  Ze houdt nog      We leren elke dag iets bij
 steeds van mij

e-----------------------0---------|---------------------------------|
B-----3---2-----0-----0---------0-|-----3---2-----0-------0-------0-|
G-------4-----2---------------4---|-------4-----2-------4-------4---|
D---4-------2---------------------|---4-------2---------------------|
A-2-------0---------2-------2-----|-2-------0---------2-------2-----|
E-----------------0-------0-------|-----------------0-------0-------|

 Mevrouw telefoon                   Verleiding spant de kroon


e-----------------------0---------|-----------------------------2---|
B-----3---2-----0-----0---2-----0-|-------3-------------2-------3---|
G-------4-----2---------------2---|-----0-------0---------0---2---2-|
D---4-------2---------------0-----|---0-------0---0---2-----0-------|
A-2-------0---------2-------------|-----------------1---------------|
E-----------------0-------2-------|-3-------3-----------------------|

 Ik ben het al gewoon meteen zonder condoom


e---------------0-------------2---|---------------0-------------2---|
B-----2-------3-------3-------3---|-----2-------3-------3-------3---|
G-----2-----2-----------0---2---2-|-----2-----2-----------0---2---2-|
D---4---4-----------2-----0-------|---4---4-----------2-----0-------|
A-----------------0---------------|-----------------0---------------|
E-2-------3-----------------------|-2-------3-----------------------|

 Ik dacht dat ik al wist            Wat hevig leven is


e---------------0---------|-----------------0-----------------|
B-----2-------3-------3---|-------0---------------3-------2---|
G-----2-----2-----------0-|--------------2----------0---------|
D---4---4-----------2-----|-----2------0--------0-------2---2-|
A-----------------0-------|---2-----------------------1-------|
E-2-------3---------------|-0-------2---------3---------------|

 Ze staat alweer voor    We leren elke dag iets bij
   mij

e-----2-------0--------0-----------|-----2-------0-------0-----------|
B-----3-------2--------0-------3---|-----3-------2---------------3---|
G---2---2----------------0-------0-|---2---2---------------0-------0-|
D-----------2---2------------0-----|-----------2---2-----------0-----|
A-0-------0----------2-------------|-0-------0---------2-------------|
E------------------0-------3-------|-----------------0-------3-------|

 En aan de telefoon                  Zet zij alweer de toon

e-----2-------0--------0-----------|
B-----3-------2--------0-------3---|
G---2---2----------------0-------0-|
D-----------2---2------------0-----|
A-0-------0----------2-------------|
E------------------0-------3-------|

 Stevig op haar troon
                   Mevrouw telefoon

|e-2-3P2---0---2-------------------|-----------------------0---------|
|B---3-3-3-2-----3-------0-----3---|-----3---2-----0-----0-------0---|
|G---------------------0---------0-|-------4-----2-----------------4-|
|D-0---------2---------------0-----|---4-------2---------------------|
|A---------0---------2-------------|-2-------0---------2-------2-----|
|E-----------------0-------3-------|-----------------0-------0-------|
|
|c---------------------------------|-2-3-2----0--2-------------------|
|e-3-5-3---2---3-0-----------------|--------3------3-----------------|
|l---------------------------------|---------------------------------|
|l---------------------------------|---------------------------------|
|o---------------------------------|---------------------------------|
|----------------------------------|---------------------------------|


|e---------------------------------|
|B-----3---2-----0-------0-----0---|
|G-------4-----2-------4---------4-|
|D---4-------2---------------------|
|A-2-------0---------2-------2-----|
|E-----------------0-------0-------|
|
|c-2-3-2---0---2-------------------|
|e-------3-------3---------2---3---|
|l-------------------------------4-|
|l---------------------------------|
|o---------------------------------|
|----------------------------------|


e-----------------------0---------|-------------------------|---|
B-----3---2-----0-----0---2-----0-|-------3-------------2---|-3-|
G-------4-----2---------------2---|-----0-------0---------0-|---|
D---4-------2---------------0-----|---0-------0---0---2-----|---|
A-2-------0---------2-------------|-----------------1-------|-2-|
E-----------------0-------2-------|-3-------3---------------|---|

  Mevrouw telefoon meteen zonder condoom


-===========================================================================-

Speciaal bedankje voor:
 Alle mensen die iets achterlaten in mijn meelboks

Op onderstaande website kun je nog meer De Mens-gekte leren spelen:

http://www.geocities.com/gitaarmens

Voor info over de mens: http://www.demens.be/ (de offici?le De Mens-site)

!!! OPGELET !!!
Dit is een persoonlijke opvatting en alzo heeft dit niets te maken met
een officieel document
comments
We did not receive enough feedback on this tab! Please rate:
print report bad tab
1 2 3 4 5
I want to post or [tab]
guest
You may want to rate the tab now too:
select rating
Please do not post tabs as comments. Select "correction" instead!