Oops, an error
Loading. Please wait.

Devils Blood Bass Tab

7 views 1 this week
no commentswrite comment
1 2 3 4 5
3 more votes to show rating
add to favorites
launch autoscroll
font size
0
reset
guitar tuner
Autoscroll
slow
fast
+/-
esc
set tempo
stop
Help us to improve Ultimate-Guitar.com Take our survey!
×
Author
Difficulty
intermediate
**THIS IS THE VINTICIOUS VERSION AND NOT THE ORIGINAL**


[Intro]
G|-----------------------------------------------|
D|------7----------------------------------------|
A|----5----5----3--5-7-5-------------------------|
E|--5--------5------------3-5--------------------| 

G|-----------------------------------------------|
D|---7-------------------------------------------|
A|-5----5----3--5-7-5----------------------------|
E|--------5------------3-5-----------------------|(x2)

G|-----------------------------------------------|
D|---7-------------------------------------------|
A|-5---5----1/7-7--3--7--------------------------|
E|-------5--------------5------------------------|

[Verse 1]

G|-----------------------------------------------|
D|-----------------------------------------------|
A|-3--5-7-5--------------------------------------|
E|-----------3-5---------------------------------|

G|-----------------------------------------------|
D|---7-------------------------------------------|
A|-5----5----3--5-7-5----------------------------|
E|--------5------------3-5-----------------------|(x2)

G|------------------------|7---7---7--------------|
D|---7--------------------|-----------------------|
A|-5----5----3--5-7-5--3-5|---5---5---5-5--3-3----|
E|----------5-------------|--5---5---3---------5--|

G|------------------------|7---7---7----------------------------------------|
D|---7--------------------|-------------------------------------------------|
A|-5----5----3--5-7-5--3-5|---5---5---5-5--3-3--8-8--8-8---8-8--8-8--10-----|
E|----------5-------------|--5---5---3-------------8-----8----8-------------|

[Chorus]

G|--------------------|-----------------------------------------------------|
D|--------------------|-----------------------------------------------------|
A|----------10--10-10-|-10-8--8---------------------------------------------|
E|-5--5-8--8----------|---------8--8-10--10-10--10--------------------------|

G|--------------------|-----------------------------------------------------|
D|--------------------|-----------------------------------------------------|
A|----------10--10-10-|-10-8--8---------------------------------------------|
E|-5--5-8--8----------|---------8--8-10--10-10--10-6--6/--------------------|

G|-------------------------|7---7---7--------------|
D|----7--------------------|-----------------------|
A|--5----5----3--5-7-5--3-5|---5---5---5-5--3-3----|
E|-5---------5-------------|--5---5---3---------5--|

[Verse 2]

G|-----------------------------------------------|
D|-----------------------------------------------|
A|-3--5-7-5--------------------------------------|
E|-----------3-5---------------------------------|

G|-----------------------------------------------|
D|---7-------------------------------------------|
A|-5----5----3--5-7-5----------------------------|
E|--------5------------3-5-----------------------|(x2)


G|------------------------|7---7---7----------------------------------------|
D|---7--------------------|-------------------------------------------------|
A|-5----5----3--5-7-5--3-5|---5---5---5-5--3-3--8-8--8-8---8-8--8-8--10-----|
E|----------5-------------|--5---5---3-------------8-----8----8-------------|

[Chorus]

G|--------------------|----------------------------------------------0------|
D|--------------------|---------------------------------------------0-------|
A|----------10--10-10-|-10-8--8---------------------------------------------|
E|-5--5-8--8----------|----------8--8-10--10-10--10-------------------------|

G|--------------------|-----------------------------------------------------|
D|--------------------|-----------------------------------------------------|
A|----------10--10-10-|-10-8--8---------------------------------------------|
E|-5--5-8--8----------|---------8--8-10--10-10--10-6--(6)/------------------|

G|----------------------------|7---7---7---------------|
D|-----7----------7-5--7-5----|------------------------|
A|---5----5----5-------------5|---5---5---5--5-7-------|
E|-5---------5----------------|-5---5---5--------------|

G|------------------------|7---7---7-------------------|
D|-----7-------7--7-5-7---|---------------5-7-5--------|
A|---5---5---5-----------5|---5---5-----5------5-------|
E|-5------5---------------|-5---5-----5----------------|

[Outro]

G|-------------------------|---------------------------|
D|-------------------------|----------------5-7-5------|
A|-8-8--8-8--8-8---8-8-10--|5-5--5-5--5-5--5-------5---|
E|----8----8-----8---------|---5----5----5-------------|


G|------------------------|----------------------------|
D|------------------------|----------------------------|
A|-8-8--8-8--8-8--8-8-10--|5-5--5-5--------------------|
E|----8----8----8---------|---5----5-6----6/-----------|


***********************************

|    /  Slide-up 
| (6)/  Hold note after the break slide up

***********************************
Suggest correction
Give kudos to tab author, rate the tab!
1 2 3 4 5
comments
print report bad tab
guest
You may want to rate the tab now too:
select rating
Wanna post a correction for this tab? Suggest correction