Oops, an error
Loading. Please wait.

Devils Blood Bass

166 views 6 this week
no commentswrite comment
1 2 3 4 5
3 more votes to show rating
add to favorites
launch autoscroll
font size
0
reset
guitar tuner
Autoscroll
slow
fast
+/-
esc
set tempo
stop
Author
Difficulty
Tuning
intermediate
E A D G
DE STAAT – DEVIL’S BLOOD - VINTICIOUS VERSION

[Intro]
1
G|---------------------------|
D|-------7-------------------| x3
A|-----5-----5-------5-7-5---|
E|-5-----------5--8---------8|

4           
G|---------------------------|
D|-------7-------------------|
A|-----5-----5----5/7--5-----|
E|-5-----------5---------8--6|

[Verse 1]
5
G|------------------------------|
D|------------------------------|
A|--------------------5---7-5---|
E|-5---------------------------8|

6
G|---------------------------|
D|-------7-------------------| x3
A|-----5-----5-------5-7-5---|
E|-5-----------5--8---------8|

9
G|----7---7---7-------------|---------------------------|
D|--------------------------|-------7-------------------|
A|-5-----5---5------7-5-----|-----5-----5-------5-7-5---|
E|------5---5---5-------8--6|-5-----------5--8---------8|

11
G|----7---7---7-------------|---------------------------|
D|--------------------------|---------------------------|
A|-5-----5---5------7-5-----|8-8---8-8---8-8---8-0-10\7-|
E|------5---5---5-------8--7|----8-----8-----8----------|

[Chorus]
13
G|----------------------|--------------------------|
D|----------------------|--------------------------| x2
A|----------10--10-10-10|-8--8---------------------|
E|-5--5-8--8------------|------8--8-10--10-10--10\-|

17
G|----------------------|
D|----------------------|
A|----------------------|
E|-6---------------/18\-|

18
G|---------------------------|----7---7---7-------------|
D|-------7-------------------|--------------------------|
A|-----5-----5-------5-7-5---|-5-----5---5------7-5-----|
E|-5-----------5--8---------8|------5---5---5-------8--6|


[Verse 2]
20
G|------------------------------|
D|------------------------------|
A|--------------------5---7-5---|
E|5----------------------------8|

21
G|---------------------------|
D|-------7-------------------| x3
A|-----5-----5-------5---7-5-|
E|-5-----------5--8---------8|

24
G|----7---7---7-------------|---------------------------|
D|--------------------------|---------------------------|
A|-5-----5---5------7-5-----|8-8---8-8---8-8---8-0-10\7-|
E|------5---5---5-------8--7|----8-----8-----8----------|


[Chorus]
26
G|----------------------|--------------------------|
D|----------------------|--------------------------| x2
A|----------10--10-10-10|-8--8---------------------|
E|-5--5-8--8------------|------8--8-10--10-10--10\-|

30
G|--------------------------------------|
D|--------------------------------------|
A|--------------------------------------|
E|-6--------------------------------18\-|

31
G|---------------------------|----7---7---7---------|
D|-------7---------------7-5-|----------------------|
A|-----5-----5-------5-7-----|-5-----5---5----5--7\-|
E|-5-----------5---8---------|------5---5---5-------|

33
G|-----------------------------|----7------7------7-----------|
D|-------7-------------7-7-7---|------------------------7-5---|
A|-----5-----5-----2/7----7-7-0|-5------5------5------------7-|
E|-5-----------5---------------|------5------5------5-5-------|

[Outro]
35
G|-------------------------|------------------------|
D|-------------------------|----------------5-7-5---|
A|-8-8--8-8--8-8---8-0-10--|5-5--5-5--5-5---------7-|
E|----8----8-----8---------|---5----5----5-5--------|

37
G|------------------------|---------------------|-----------------|
D|------------------------|---------------------|-----------------|
A|-8-8--8-8--8-8--8-0-10\-|5-5--5-5-------------|-----------------|
E|----8----8----8---------|---5----5-6----------|6------------/18\|


********************

| /  Slide up
| \  Slide down

********************
Suggest correction
Give kudos to tab author, rate the tab!
1 2 3 4 5
comments
print report bad tab
guest
You may want to rate the tab now too:
select rating
Wanna post a correction for this tab? Suggest correction