Oops, an error
Loading. Please wait.

Make The Call Leave It All Bass Tab

124 views 15 this week
no commentswrite comment
1 2 3 4 5
3 more votes to show rating
add to favorites
launch autoscroll
font size
0
reset
guitar tuner
Autoscroll
slow
fast
+/-
esc
set tempo
stop
Help us to improve Ultimate-Guitar.com Take our survey!
×
Difficulty
intermediate
Make the call, leave it all – De Staat

Intro
G|-------------------------------------|------------------------------------|  
D|--6--------3-------3-2-------4-------|--6-6--------3------3-2-------4-----|
A|---------4----------------------6----|------------4---------------------6-|
E|-------------------------------------|------------------------------------|

G|--------------------------------------------------|
D|--6-6--------3------3-2----2-1--------------------|
A|------------4---------------------2-3-------------|
E|-----------------------------------------6-4----4-|

Verse
G|---------------------------------|-------------------------------------------------------------|
D|----6------6-------6-------6-6-4-|----6-------6--------6-6----6------4------4------4-------4-4-|
A|---------------------------------|-------------------------------------------------------------|
E|--4------4------4------4-4-------|-4-------4------4-4-----4-4-----2------2------2-----2-2------|

G|--------------------------------------------------------------------|
D|-------6-------6--------6-6------6-----7------7------7--------7-7-6-|
A|--------------------------------------------------------------------|
E|-2/4-------4-------4-4-----4-4-----5------5------5------5-5---------|

G|-------------------------------------------------------------|-----------------------------------------|
D|----6-------6--------6-6------6----4------4------4-------4-4-|-------6-----6---6------6-6-----6------7-|
A|-------------------------------------------------------------|--------------------------------------6--|
E|--4-------4------4-4-----4-4-----2------2------2-----2-2-----|-2/4-----4----4-----4-4-----4-4-----5----|

Chorus
G|-----------------------------------|------------------------------------|  
D|--6--------3-------3-2-------4-----|--6-6--------3------3-2-------4-----|
A|----------4----------------------6-|------------4---------------------6-|
E|-----------------------------------|------------------------------------|

G|---------------------------------------------|
D|--6-6--------3------3-2----2-1---------------|
A|------------4---------------------2-3--------|
E|-----------------------------------------6-4-|
Verse
G|-----------------------------------------------------------|
D|----6-------6--------6--------6----4-----4-----4-------4-4-|
A|-----------------------------------------------------------|
E|-4----4-4------4-4----4-4--------2-----2-----2----2-2------|

G|--------------------------------------------------------------------|
D|-------6-------6--------6-6------6-----7------7------7--------7-7-6-|
A|--------------------------------------------------------------------|
E|-2/4-------4-------4-4-----4-4-----5------5------5------5-5---------|

G|-------------------------------------------------------------|-----------------------------------------|
D|----6-------6--------6-6------6----4------4------4-------4-4-|-------6-----6---6--------6-6-----6----7-|
A|-------------------------------------------------------------|--------------------------------------6--|
E|--4-------4------4-4-----4-4-----2------2------2-----2-2-----|-2/4-----4----4-----4-4-----4-4------5---|

Chorus
G|-----------------------------------|------------------------------------|  
D|--6--------3-------3-2-------4-----|--6-6--------3------3-2-------4-----|
A|----------4----------------------6-|------------4---------------------6-|
E|-----------------------------------|------------------------------------|

G|-----------------------------------------------------|
D|--6-6--------3------3-2----2-1-----------------------|
A|------------4---------------------2-3----------------|
E|-----------------------------------------6-4---4---4-|

Bridge
G|---------------------------------------------6-----4-|
D|---6-6----------6--------6-6----------6--------------|
A|--------7--5-----------------7--5----------4-----2---|
E|-4------------4--------4-----------4-----------------|

G|----------------------------------------------6------4---------|----------------------|
D|-----6-6----------6--------6-6----------6----------------------|--A bit without bass--|
A|-----------7--5-----------------7--5--------4------2------1--1-|----------------------|
E|--4-------------4--------4------------4------------------------|----------------------|

Chorus
G|-----------------------------------|------------------------------------|  
D|--6--------3-------3-2-------4-----|--6-6--------3------3-2-------4-----|
A|----------4----------------------6-|------------4---------------------6-|
E|-----------------------------------|------------------------------------|

G|---------------------------------------------|
D|--6-6--------3------3-2----2-1---------------|
A|------------4---------------------2-3--------|
E|-----------------------------------------6-4-|

Outro
G|-----------------------------------|------------------------------------|  
D|--6--------3-------3-2-------4-----|--6-6--------3------3-2-------4-----|
A|----------4----------------------6-|------------4---------------------6-|
E|-----------------------------------|------------------------------------|

G|---------------------------------------------|----------------------------------------|
D|--6-6--------3------3-2----2-1---------------|----------------------6p4---------------|
A|------------4---------------------2-3--------|----------------------------------------|
E|-----------------------------------------6-4-|--4----4----4----4----------4----4----4-|



Suggest correction
Give kudos to tab author, rate the tab!
1 2 3 4 5
comments
print report bad tab
guest
You may want to rate the tab now too:
select rating
Wanna post a correction for this tab? Suggest correction