Oops, an error
Loading. Please wait.

Dignity bass

4,816 views 6 this week
no commentswrite comment
1 2 3 4 5
x 3
add to favorites
×
Save as Personal and add changes to this tab that will be seen only by you. Learn more ›
×
You can save this tab as Personal to edit and correct it or add notes. All changes will be seen only by you. Learn more »
launch autoscroll
font size
0
reset
guitar tuner
edit
Autoscroll
slow
fast
+/-
esc
set tempo
stop
-------------------------------------------------------------------------------
                             Deacon Blue - Dignity
-------------------------------------------------------------------------------

Tabbed By : Martin Carlin
e-mail: martincarlin87@hotmail.com

Tuning: Standard

Just noticed a mistake and submitting a correction.

Verse
=====

G|---------------------------------------------------------------------------|
D|---------------------------------------------------------------------------|
A|----------------1~--1-3~--3-5----------------------------------------------|
E|--1~--2-3-5~--5--------------(1~)------------------------------------------|x6

The F in brackets is the first note of the next round of the verse.

Pre-Chorus
==========
G|---------------------------------------------------------------------------|
D|---------------------------------------------------------------------------|
A|-----5-7-8~----------------------------------------------------------------|
E|---------------------------------------------------------------------------|x3

Chorus
==========
G|---------------------------------------------------------------------------|
D|---------------------------------------------------------------------------|
A|-1-1~--3-3~--0-0~--3-5~--5-3-1-1~--3-3~--0-1~-X-0~---X-3~-X----------------|
E|------------------------------------------------------------3~-X-----------|

                                           Ship. Called. Dig. Nuh-TEE!
 
Main Riff
=========

G|---------------------------------------------------------------------------|
D|---------------------------------------------------------------------------|
A|-----------------0---------------------------------------------------------|
E|--1-1-1-1-1-1-3------------------------------------------------------------|

Play this until the Pre-Chorus part comes back in again.


Pre-Chorus

Main Riff Till End

End on F.
Suggest correction
Creating personal tab
Creating personal tab
You can edit any tab online and save it as your Personal.

You can edit, replace or remove any tab part or add personal notes – all changes will be seen only by you.

Personal tabs can be accessed anytime from any device, even offline.
Learn more »
Give kudos to tab author, rate the tab!
1 2 3 4 5
comments
print report bad tab
guest
You may want to rate the tab now too:
select rating
Wanna post a correction for this tab? Suggest correction