Oops, an error
Loading. Please wait.

Carol Of The Bells Tab

by Dead
1,711 views 1 this week
no commentswrite comment
1 2 3 4 5
please rate
add to favorites
launch autoscroll
font size
0
reset
how to read this tab
guitar tuner
Tab Pro tools
  • play this tab
  • loop segment
  • change instrument
  • show fretboard
  • metronome
×
Best way to learn
"Carol Of The Bells"
Autoscroll
slow
fast
+/-
esc
set tempo
stop
Contributor
Difficulty
intermediate
----------------------------------------------------------------------------
                            Carol of the Bells - The Dead
----------------------------------------------------------------------------
Tabbed by: Larz Mettler
Email: metallicalrz@hotmail.com

Tuning:Standard (e,B,G,D,A,E)

Gtr. 2 starts with: 
e|3 2^3 0 3 2^3 0 3 2^3 0 3 2^3 0|---------|3 2^3 0 3 2^3 0 3 2^3 0 3 2^3 0|
B|-------------------------------|---------|-------------------------------|
G|-------------------------------|---------|-------------------------------|
D|-------------------------------|---------|-------------------------------|
A|-------------------------------|---------|-------------------------------|
E|-------------------------------|7--5--3-2|-------------------------------|

Gtr. 1 comes in at the 3rd bar with:
e|7 6^7 3 7 6^7 3 7 6^7 3 7 6^7 3|12 12^12 10^8 7 7^7 5 3 5 5^5 7 5 3 2^3 0|
B|-------------------------------|-----------------------------------------|
G|-------------------------------|-----------------------------------------|
D|-------------------------------|-----------------------------------------|
A|-------------------------------|-----------------------------------------|
E|-------------------------------|-----------------------------------------|

Gtr. 2(under gtr. 1 [gtr. 2 has this rythym throughout the whole song])
e|3 2^3 0 3 2^3 0 3 2^3 0 3 2^3 0|
B|-------------------------------|
G|-------------------------------|
D|-------------------------------|
A|-------------------------------|
E|-------------------------------|

Gtr. 2(rythmic solo)     (end solo at beginning of 2nd bar)
e|3 2^3 0 3 2^3 0 3 2^3 0 3 2^3 0|   x8 (under gtr. 1)
B|-------------------------------| 
G|-------------------------------|  
D|-------------------------------| 
A|-------------------------------|
E|-------------------------------|

Gtr. 1(come in at beginning of gtr. 2's 2nd bar)
e|-------------------|-------------------|-------------------------------|
B|-------------------|-------------------|-------------------------------|
G|-------------------|-------------------|-------------------------------|
D|------------0^2^0--|------------0^2^0--|-------------------------------|
A|------0^2^3-------3|------0^2^3-------3|3 2^3 0 3 2^3 0 3 2^3 0 3 2^3 0|
E|0^2^3--------------|0^2^3--------------|-------------------------------|

Gtr. 1
e|-------------------------------|-----------------------------------------|
B|-------------------------------|-----------------------------------------|
G|-------------------------------|-----------------------------------------|
D|-------------------------------|-----------------------------------------|
A|7 6^7 3 7 6^7 3 7 6^7 3 7 6^7 3|12 12^12 10^8 7 7^7 5 3 5 5^5 7 5 3 2^3 0|
E|-------------------------------|-----------------------------------------|

e|-------------------|-------------------|---------------------------------|
B|-------------------|-------------------|---------------------------------|
G|-------------------|-------------------|---------------------------------|
D|------------0^2^0--|------------0^2^0--|---------------------------------|
A|------0^2^3-------3|------0^2^3-------3|---------------------------------|
E|0^2^3--------------|0^2^3--------------|---------------------------------|

Gtr. 2(rythmic solo [starts at bar 3])
                          last bar is`slowly' played
e|3^2 0 3^2 0 3^2 0 3^2 0|3~ 2 3~ 0-----|
B|-----------------------|--------------|
G|-----------------------|--------------|
D|-----------------------|--------------|
A|-----------------------|--------------|
E|-----------------------|--------------|

Gtr. 1(under gtr. 2)
e|-----------------------|--------------|
B|-----------------------|--------------|
G|-----------------------|--------------|
D|-----------------------|--------------|
A|-----------------------|--------------|
E|7~----5~----3~----2~---|--------0-----|


| /  slide up
| \  slide down
| h  hammer-on
| p  pull-off
| ~  vibrato
| +  harmonic
| x  Mute note
============================================================================
comments
We did not receive enough feedback on this tab! Please rate:
print report bad tab
1 2 3 4 5
I want to post or [tab]
guest
You may want to rate the tab now too:
select rating
Please do not post tabs as comments. Select "correction" instead!