Oops, an error
Loading. Please wait.

The Machines We Are album tab

8,654 views 6 this week
8 commentsread comments
1 2 3 4 5
x 6
add to favorites
×
Save as Personal and add changes to this tab that will be seen only by you. Learn more ›
×
You can save this tab as Personal to edit and correct it or add notes. All changes will be seen only by you. Learn more »
launch autoscroll
font size
0
reset
how to read this tab
guitar tuner
edit
Autoscroll
slow
fast
+/-
esc
set tempo
stop
tuning: drop c
its mostly one guitar but a few parts have two guitars.


1. the sugar sickness
2. creature
3. chemical valley
4. neon jesus
5. D.R.U.G.S.
6. for your health
7. teeth
8. mechanical orchestra
9. lovely bones
10. cassandra syndrome


                       -------------------------
                         01 THE SUGAR SICKNESS
                       -------------------------

0:00-0:27
|------------------------------------------------------|
|------------------------------------------------------|
|----7------------------------------7----------77777---|
|----x---3/5------------------------x----3/5---55555---|
|-0--5---3/5-----3----3----3/5---0--5----3/5-----------| x5
|-0----0-3/5--00-3-00-3--0-3/5---0----0—-3/5-0---------|
       .      ..   ..    .            .

0:28-0:48
|--------------------------------------------|
|--------------------------------------------|
|---------------------------------777--777---|
|------------------------7--------xxx--xxx---|
|--00--00--0-00-0-0--00--5-00--5--555--555---|
|--00--00--0-00-0-0--00----00--5-------------|
                     ..    ..

|--------------------------------------------|
|--------------------------------------------|
|---------------------------------777--777---|
|------------------------7--------xxx--xxx---|
|--00--00--0-00-0-0--00--5-00--5--555--555---|
|--00--00--0-00-0-0--00----00--5-------------|
                     ..    ..

|--------------------------------------|
|--------------------------------------|
|--------------------------------777---|
|------------------------7-------xxx---|
|---0-00--0-00--0-00-----5----5--555---|
|---0-00--0-00--0-00--00---00-5--------|
                       ..

|---------------------------------------------|
|---------------------------------------------|
|--------------------------------777-777------|
|------------------------7-------xxx-xxx------|
|---0-00--0-00--0-00-----5----5--555-555------|
|---0-00--0-00--0-00--00---00-5----------00---|
                      ..   ..

0:49-0:58
|-----------------------------------|
|-----------------------------------|
|-7-7-7-7-7-7-7-7--6-6-6-6-6-6-6-6--|
|-x-x-x-x-x-x-x-x--x-x-x-x-x-x-x-x--|
|-5-5-5-5-5-5-5-5--4-4-4-4-4-4-4-4--|
|-----------------------------------|

-------------------------------|
-------------------------------|
-5-5-5-5-5-5-5-5—-6-6-6-6-6~---|
-x-x-x-x-x-x-x-x--x-x-x-x-x~---|
-3-3-3-3-3-3-3-3—-4-4-4-4-4~---|
-------------------------------|


0:59-1:18
|-------------------------------------------|
|-------------------------------------------|
|--777---7-7-777777-------------------------|
|--xxx---x-x-xxxxxx--777---7-7-777777-------|
|--555---5-5-555555--777-0-7-7-777777-------|
|------0-------------777-0-7-7-777777-------|

----------------------------------------------------|
----------------------------------------------------|
---7---7-7----7----7777----10--7-7----10---10----10-|
---x---x-x----x----xxxx----x---x-x----x----x-----x--|
---5---5-5----5----5555----8---5-5----8----8-----8--|
-0---0-----00---00-------0---0-----00---00----00----|
           ..   ..                 ..   ..    ..

|-------------------------------------------|
|-------------------------------------------|
|--777---7-7-777777-------------------------|
|--xxx---x-x-xxxxxx--777---7-7-777777-------|
|--555---5-5-555555--777-0-7-7-777777-------|
|------0-------------777-0-7-7-777777-------|

----------------------------------------------------|
----------------------------------------------------|
---7---7-7----7----7777----10--7-7----10---10----10-|
---x---x-x----x----xxxx----x---x-x----x----x-----x--|
---5---5-5----5----5555----8---5-5----8----8-----8--|
-0---0-----00---00-------0---0-----00---00----00----|
           ..   ..                 ..   ..    ..

1:19-1:23
|------------------------------------------------|
|------------------------------------------------|
|--7-7-7--9-9-9--10-10--12-12-12-12-12-12-12-12--|
|------------------------------------------------|
|------------------------------------------------|
|------------------------------------------------|

|---------------------------|
|---------------------------|
|--10-10-10--9-9-9--7-7—9~--|
|---------------------------|
|---------------------------|
|---------------------------|


1:24-1:43
|------------------------------------------------------|
|------------------------------------------------------|
|----7------------------------------7----------77777---|
|----x---3/5------------------------x----3/5---55555---|
|-0--5---3/5-----3----3----3/5---0--5----3/5-----------|
|-0----0-3/5--00-3-00-3--0-3/5---0----0—-3/5-0---------|
              ..   ..
|-----------------------------------------------|
|-----------------------------------------------|
|----7------------------------------7-----------|
|----x---3/5------------------------x----3/5----|
|-0--5---3/5-----3----3----3/5---0--5----3/5----|
|-0----0-3/5--00-3-00-3--0-3/5---0----0—-3/5----|
              ..   ..

|------------------------------------------------------|
|------------------------------------------------------|
|----7------------------------------7----------77777---|
|----x---3/5------------------------x----3/5---55555---|
|-0--5---3/5-----3----3----3/5---0--5----3/5-----------|
|-0----0-3/5--00-3-00-3--0-3/5---0----0—-3/5-0---------|

|------------------------------------------------------|
|------------------------------------------------------|
|----7------------------------------7----------77777---|
|----x---3/5------------------------x----3/5---55555---|
|-0--5---3/5-----3----3----3/5---0--5----3/5-----------|
|-0----0-3/5--00-3-00-3--0-3/5---0----0—-3/5-0---------|


1:44-1:53
|-----------------------------------|
|-----------------------------------|
|-----------------------------------|
|-----------------------------------|
|-5-0-3-0--------------5-0-3-0------|
|-5-0-3-0--------------5-0-3-0------|


1:54-2:14
|--------------------------------------------|
|--------------------------------------------|
|-777—-7-7---777--7-7---777--7-7---777-7-7~--|
|-xxx--x-x---xxx--x-x---xxx--x-x---xxx-x-x~--|
|-555--5-5---555--5-5—--555--5-5---555-5-5~--|
|--------------------------------------------|

|--------------------------------------------|
|--------------------------------------------|
|-777—-7-7---777--7-7---777--7-7---777-7-7---|
|-xxx--x-x---xxx--x-x---xxx--x-x---xxx-x-x---|
|-555--5-5---555--5-5—--555--5-5---555-5-5---|
|--------------------------------------------|


2:15-2:24
|----------------------------------------------|
|------------6666666---------------6666666-----|
|-777—-7-7---9999999----777--7-7---9999999-----|
|-xxx--x-x--------------xxx--x-x---------------|
|-555--5-5--------------555--5-5—--------------|
|----------------------------------------------|

|-------------------------------------------------|
|------------6666666---------------6666666--------|
|-777—-7-7---9999999----777--7-7---9999999--------|
|-xxx--x-x--------------xxx--x-x------------------|
|-555--5-5--------------555--5-5—------------000--|
|--------------------------------------------000--|


2:25-2:34
|-----------------------------------|
|-----------------------------------|
|-7-7-7-7-7-7-7-7--6-6-6-6-6-6-6-6--|
|-x-x-x-x-x-x-x-x--x-x-x-x-x-x-x-x--|
|-5-5-5-5-5-5-5-5--4-4-4-4-4-4-4-4--|
|-----------------------------------|

-------------------------------|
-------------------------------|
-5-5-5-5-5-5-5-5—-6-6-6-6-6~---|
-x-x-x-x-x-x-x-x--x-x-x-x-x~---|
-3-3-3-3-3-3-3-3—-4-4-4-4-4~---|
-------------------------------|


2:35-2:44
|-------------------------------------------------------|
|-----6----6----6----6----6------6----6----6----6----6--|
|---9----9----9----9----9------9----9----9----9----9----|
|-7----7----7----7----7------0----0----0----0----0------|
|-------------------------------------------------------|
|-------------------------------------------------------|

|----------------------------------------------------|
|-----6----6----6----6----6------6----6-----6~-------|
|---9----9----9----9----9------9----9----9—-9~-------|
|-7----7----7----7----7------0----0----0----0~-------|
|----------------------------------------------------|
|----------------------------------------------------|


2:44-3:05
|-------------------------------------------|
|-------------------------------------------|
|--777---7-7-777777-------------------------|
|--xxx---x-x-xxxxxx--777---7-7-777777-------|
|--555---5-5-555555--777-0-7-7-777777-------|
|------0-------------777-0-7-7-777777-------|

----------------------------------------------------|
----------------------------------------------------|
---7---7-7----7----7777----10--7-7----10---10----10-|
---x---x-x----x----xxxx----x---x-x----x----x-----x--|
---5---5-5----5----5555----8---5-5----8----8-----8--|
-0---0-----00---00-------0---0-----00---00----00----|
           ..   ..                 ..   ..    ..

|-------------------------------------------|
|-------------------------------------------|
|--777---7-7-777777-------------------------|
|--xxx---x-x-xxxxxx--777---7-7-777777-------|
|--555---5-5-555555--777-0-7-7-777777-------|
|------0-------------777-0-7-7-777777-------|

----------------------------------------------------|
----------------------------------------------------|
---7---7-7----7----7777----10--7-7----10---10----10-|
---x---x-x----x----xxxx----x---x-x----x----x-----x--|
---5---5-5----5----5555----8---5-5----8----8-----8--|
-0---0-----00---00-------0---0-----00---00----00----|
           ..   ..                 ..   ..    ..


3:06-3:14
|------------------------------------------------|
|------------------------------------------------|
|--7-7-7--9-9-9--10-10--12-12-12-12-12-12-12-12--|
|------------------------------------------------|
|------------------------------------------------|
|------------------------------------------------|
                                                        X2
|-----------------------------------------|
|-----------------------------------------|
|--10-10-10--9-9-9--7-7--9-9-9-9-9-9-9-9--|
|-----------------------------------------|
|-----------------------------------------|
|-----------------------------------------|

3:15-3:25
|---------------------------------------------------|
|---------------------------------------------------|
|--7-7-7--9-9-9--10-10-10--7-7-7--9-9-9--10-10-10---|
|---------------------------------------------------|
|---------------------------------------------------|
|---------------------------------------------------|
                                                        X2

|-----------------------------------------|
|---------------------------10b-10-10—10b-|
|--10-10-10--7-7-7--9-9-9-----------------|
|-----------------------------------------|
|-----------------------------------------|
|-----------------------------------------|


3:26-3:48
|--13-13-13--10-10-10--12-12-12--13-----|
|---------------------------------------|
|---------------------------------------|
|---------------------------------------|
|---------------------------------------|
|---------------------------------------|

--------------------------------------------------|
---10h11-10---------10----------------------------|
--------------12-12—---12--10-10--9-9--10-10--9-9-|
--------------------------------------------------|
--------------------------------------------------|
--------------------------------------------------|

|13-13-13--10-10-10--12-12-12--13-----|
|-------------------------------------|
|-------------------------------------|
|-------------------------------------|
|-------------------------------------|
|-------------------------------------|

-----------------------------------------|
---10h11-10---------10-------------------|
--------------12-12—---12--9—-10--9—10~--|
-----------------------------------------|
-----------------------------------------|
-----------------------------------------|



                             ---------------
                               02 CREATURE
                             ---------------

0:00-0:33
|--------------------------------------------------------------|
|--------------------------------------------------------------|
|-----------------------------------------------------77---777-|
|-----------------------------------------------------xx---xxx-|
|---------------------------------------------------x-55---555-|
|-4--1-1-xx-1-1-1-1-1-1-xx-1-1-1-00-4—-1-1-xx-1-1-1-x----0-----|
                             ..                      .
|--------------------------------------------------------------|
|--------------------------------------------------------------|
|-----------------------------------------------------77---777-|
|-----------------------------------------------------xx---xxx-|
|---------------------------------------------------x-55---555-|
|-4--1-1-xx-1-1-1-1-1-1-xx-1-1-1-00-4—-1-1-xx-1-1-1-x----0-----|
                                 ..                      .
|--------------------------------------------------------------|
|--------------------------------------------------------------|
|-----------------------------------------------------77---777-|
|-----------------------------------------------------xx---xxx-|
|---------------------------------------------------x-55---555-|
|-4--1-1-xx-1-1-1-1-1-1-xx-1-1-1-00-4—-1-1-xx-1-1-1-x----0-----|
                                 ..                      .
|--------------------------------------------------------------|
|--------------------------------------------------------------|
|-----------------------------------------------------77---777-|
|-----------------------------------------------------xx---xxx-|
|---------------------------------------------------x-55---555-|
|-4--1-1-xx-1-1-1-1-1-1-xx-1-1-1-00-4—-1-1-xx-1-1-1-x----0-----|
                                 ..                      .
|-------------|
|-------------|
|-77---777----|
|-xx---xxx----|
|-55---555----|
|----0--------|
     .

0:34-0:49
|----------------------------------|
|----------------------------------|
|----------------------------------|
|-4-x-1--xx--4-1-4—-1-1--xx-xx-xx--|
|-4-x-1--xx--4-1-4—-1-1--xx-xx-xx--|
|-4-x-1--xx--4-1-4—-1-1--xx-xx-xx--|

----------------------------------|
----------------------------------|
-------------------------777777---|
-xx-4-x-1-xx--4-1-4--11--xxxxxx---|
-xx-4-x-1-xx--4-1-4--11--555555---|
-xx-4-x-1-xx--4-1-4--11-----------|

|----------------------------------|
|----------------------------------|
|----------------------------------|
|-4-x-1--xx--4-1-4—-1-1--xx-xx-xx--|
|-4-x-1--xx--4-1-4—-1-1--xx-xx-xx--|
|-4-x-1--xx--4-1-4—-1-1--xx-xx-xx--|

----------------------------------|
----------------------------------|
-------------------------777777---|
-xx-4-x-1-xx--4-1-4--11--xxxxxx---|
-xx-4-x-1-xx--4-1-4--11--555555---|
-xx-4-x-1-xx--4-1-4--11-----------|


0:50-1:05
|------------------------------------------------|
|------------------------------------------------|
|--------------------------------------------66--|
|--------------------------------------------66--|
|-0-0-0----0---0----0-0-0—5h7p5h7p5----------44--|
|-0-0-0----0---0----0-0-0-----------8—-0-0--0----|
                                            .
|------------------------------------------------|
|------------------------------------------------|
|--------------------------------------------66--|
|--------------------------------------------66--|
|-0-0-0----0---0----0-0-0—5h7p5h7p5----------44--|
|-0-0-0----0---0----0-0-0-----------8—-0-0--0----|


1:06-1:18
|-------xxxx------xxxxxx--------xxxx---------|
|-------xxxx------xxxxxx--------xxxx---------|
|-------xxxx------xxxxxx--------xxxx---------|
|-------xxxx------xxxxxx--------xxxx---------|
|-0-0-0-xxxx--0-0-xxxxxx--0-0-0-xxxx--0-0-00-|
|-0-0-0-xxxx--0-0-xxxxxx--0-0-0-xxxx--0-0-00-|

|-------xxxx------xxxxxx------------------------------|
|-------xxxx------xxxxxx------------------------------|
|-------xxxx------xxxxxx--------------------------66--|
|-------xxxx------xxxxxx--------------------------66--|
|-0-0-0-xxxx--0-0-xxxxxx--0-0-0—5h7p5h7p5---------44--|
|-0-0-0-xxxx--0-0-xxxxxx--0-0-0-----------8-0-0--0----|


1:19-1:34
|-------------------------------------------------|
|-------------------------------------------------|
|-66666666666666--7777-66666666-------------------|
|-xxxxxxxxxxxxxx--xxxx-xxxxxxxx--999999999999999--|
|-44444444444444--5555-44444444--999999999999999--|
|--------------------------------999999999999999--|

|----------------------|
|----------------------|
|----------------------|
|-44444444--0000-2222--|
|-44444444--0000-2222--|
|-44444444--0000-2222--|


1:35-1:50
|--------------------------------------------------------------|
|--------------------------------------------------------------|
|-----------------------------------------------------77---777-|
|-----------------------------------------------------xx---xxx-|
|---------------------------------------------------x-55---555-|
|-4--1-1-xx-1-1-1-1-1-1-xx-1-1-1-00-4—-1-1-xx-1-1-1-x----0-----|
                             ..                      .
|--------------------------------------------------------------|
|--------------------------------------------------------------|
|-----------------------------------------------------77---777-|
|-----------------------------------------------------xx---xxx-|
|---------------------------------------------------x-55---555-|
|-4--1-1-xx-1-1-1-1-1-1-xx-1-1-1-00-4—-1-1-xx-1-1-1-x----0-----|
                                 ..                      .

1:51-2:06
|---------------------------------------------------|
|---------------------------------------------------|
|--7\--7-7-7\---------------------------7\--7-7-7\--|
|--x\--x-x-x\---------------------------x\--x-x-x\--|
|--5\--5-5-5\---------------------------5\--5-5-5\--|
|---------------------------------------------------|


2:07-2:21
|----------------------------------|
|----------------------------------|
|----------------------------------|
|-4-x-1--xx--4-1-4—-1-1--xx-xx-xx--|
|-4-x-1--xx--4-1-4—-1-1--xx-xx-xx--|
|-4-x-1--xx--4-1-4—-1-1--xx-xx-xx--|

--------------------------------------|
--------------------------------------|
--------------------------------------|
-xx-4-x-1-xx--4-1-4--11---------------|
-xx-4-x-1-xx--4-1-4--11---------------|
-xx-4-x-1-xx--4-1-4--11-1-1-1-1/12b---|

|----------------------------------|
|----------------------------------|
|----------------------------------|
|-4-x-1--xx--4-1-4—-1-1--xx-xx-xx--|
|-4-x-1--xx--4-1-4—-1-1--xx-xx-xx--|
|-4-x-1--xx--4-1-4—-1-1--xx-xx-xx--|

--------------------------|
--------------------------|
--------------------------|
-xx-4-x-1-xx--4-1-4--1—-0-|
-xx-4-x-1-xx--4-1-4--1—-0-|
-xx-4-x-1-xx--4-1-4--1—-0-|


2:22-2:46
|-------xxxx------xxxxxx--------xxxx---------|
|-------xxxx------xxxxxx--------xxxx---------|
|-------xxxx------xxxxxx--------xxxx---------|
|-------xxxx------xxxxxx--------xxxx---------|
|-0-0-0-xxxx--0-0-xxxxxx--0-0-0-xxxx--0-0-00-|
|-0-0-0-xxxx--0-0-xxxxxx--0-0-0-xxxx--0-0-00-|

|-------xxxx------xxxxxx--------xxxx---------|
|-------xxxx------xxxxxx--------xxxx---------|
|-------xxxx------xxxxxx--------xxxx---------|
|-------xxxx------xxxxxx--------xxxx---------|
|-0-0-0-xxxx--0-0-xxxxxx--0-0-0-xxxx--0-0-00-|
|-0-0-0-xxxx--0-0-xxxxxx--0-0-0-xxxx--0-0-00-|

|--------------------------------------------|
|--------------------------------------------|
|--------------------------------------------|
|--------------------------------------------|
|-0-0-0-------0-0---------0-0-0-------0-0-00-|
|-0-0-0-------0-0---------0-0-0-------0-0-00-|

|--------------------------------------------|
|--------------------------------------------|
|--------------------------------------------|
|--------------------------------------------|
|-0-0-0-------0-0---------0-0-0-------0-0-00-|
|-0-0-0-------0-0---------0-0-0-------0-0-00-|


2:47-3:02
|-------------------------------------------------|
|-------------------------------------------------|
|-66666666666666--7777-66666666-------------------|
|-xxxxxxxxxxxxxx--xxxx-xxxxxxxx--999999999999999--|
|-44444444444444--5555-44444444--999999999999999--|
|--------------------------------999999999999999--|

|----------------------|
|----------------------|
|----------------------|
|-44444444--0000-2222--|
|-44444444--0000-2222--|
|-44444444--0000-2222--|


3:03-3:34
t  t  t  t  t  t  t  t   t  t  t  t  t  t  t  t
|--14-14-14-14-14-14-14-14--16-16-16-16-16-16-16-16--- /
|----------------------------------------------------- /
|----------------------------------------------------\ /
|----------------------------------------------------- / \
|----------------------------------------------------- /  \
|----------------------------------------------------- /   \
                                                         \
                                                          x3
   t  t  t  t  t  t  t  t   t  t  t  t  t  t  t  t       /
--17-17-17-17-17-17-17-17--19-19-19-19-19-19-19-19--|  -- /
----------------------------------------------------| --- /
----------------------------------------------------|---- /
--------------------------------------------------------- /
--------------------------------------------------------- /
--------------------------------------------------------- /

   t  t  t  t  t  t  t  t  t  t  t  t  t  t  t  t
|-17-17-17-17-17-17-17-17-17-17-17-17-17-17-17-17---|
|---------------------------------------------------|
|---------------------------------------------------|
|---------------------------------------------------|
|---------------------------------------------------|
|---------------------------------------------------|

 t  t  t  t  t  t  t  t  t  t  t  t  t  t  t  t
-16-16-16-16-16-16-16-16-16-16-16-16-16-16-16-16---|
---------------------------------------------------|
---------------------------------------------------|
---------------------------------------------------|
---------------------------------------------------|
---------------------------------------------------|

    t  t  t  t  t  t  t  t   t  t  t  t  t  t  t  t
|--14-14-14-14-14-14-14-14--16-16-16-16-16-16-16-16--- /
|----------------------------------------------------- /
|----------------------------------------------------\ /
|----------------------------------------------------- / \
|----------------------------------------------------- /  \
|----------------------------------------------------- /   \
                                                         \
                                                          x3
   t  t  t  t  t  t  t  t   t  t  t  t  t  t  t  t       /
--17-17-17-17-17-17-17-17--19-19-19-19-19-19-19-19--|  -- /
----------------------------------------------------| --- /
----------------------------------------------------|---- /
--------------------------------------------------------- /
--------------------------------------------------------- /
--------------------------------------------------------- /

t  t  t  t  t  t  t  t  t  t  t  t  t  t  t  t
|-17-17-17-17-17-17-17-17-17-17-17-17-17-17-17-17---|
|---------------------------------------------------|
|---------------------------------------------------|
|---------------------------------------------------|
|---------------------------------------------------|
|---------------------------------------------------|

 t  t  t  t  t  t  t  t  t  t  t  t  t  t  t  t
-16-16-16-16-16-16-16-16-16-16-16-16-16-16-16-16---|
---------------------------------------------------|
---------------------------------------------------|
---------------------------------------------------|
---------------------------------------------------|
---------------------------------------------------|


3:36-4:10
|--------------------------------------------------------|
|--------------------------------------------------------|
|--------------------------------------------------------|
|--------------------------------------------------------|
|-0-0-0----0---0-----0-0-0----0---0------0-0-0----0---0--|
|-0-0-0----0---0-----0-0-0----0---0------0-0-0----0---0--|

----------------------------------------------------------|
----------------------------------------------------------|
----------------------------------------------------------|
------------------------------------------------------0~--|
-0-0-0----0---0-----0-0-0----0---0------0-0-0-0---0---0~--|
-0-0-0----0---0-----0-0-0----0---0------0-0-0-0---0---0~--|




                             ----------------------
                               03 CHEMICAL VALLEY
                             ----------------------

0:04-0:13
|-------------------------------------------------------|
|-------------------------------------------------------|
|-------------------------------------------------------|
|--2-2-2-2-2-2--5-5-5-5-5-5--2-2-2-2-2-2--5-5-5--xx-----|
|--2-2-2-2-2-2--5-5-5-5-5-5--2-2-2-2-2-2--5-5-5--xx-----|
|--2-2-2-2-2-2--5-5-5-5-5-5--2-2-2-2-2-2--5-5-5--xx-----|

|-------------------------------------------------------|
|-------------------------------------------------------|
|-------------------------------------------------------|
|--2-2-2-2-2-2--5-5-5-5-5-5--2-2-2-2-2-2--5-5-5--xx-----|
|--2-2-2-2-2-2--5-5-5-5-5-5--2-2-2-2-2-2--5-5-5--xx-----|
|--2-2-2-2-2-2--5-5-5-5-5-5--2-2-2-2-2-2--5-5-5--xx-----|


0:14-0:32
|----------------------------------------------|
|----------------------------------------------|
|----------------------------------------------|
|----------------------------------------------|
|-----------2-0---------------2-0--------------|
|-2-2--2-2------2b—-2-2--2-2------10-10-10-10--|

|----------------------------------------------|
|----------------------------------------------|
|----------------------------------------------|
|----------------------------------------------|
|-----------2-0---------------2-0--------------|
|-2-2--2-2------2b—-2-2--2-2------10-10-10-10--|

|----------------------------------------------|
|----------------------------------------------|
|----------------------------------------------|
|----------------------------------------------|
|-----------2-0---------------2-0--------------|
|-2-2--2-2------2b—-2-2--2-2------10-10-10-10--|

|----------------------------------------------|
|----------------------------------------------|
|----------------------------------------------|
|----------------------------------------------|
|-----------2-0---------------2-0--------------|
|-2-2--2-2------2b—-2-2--2-2------10-10-10-10--|


0:33-0:33
|-----------|
|-----------|
|-----------|
|-0--2--3---|
|-0--2--3---|
|-0--2--3---|


0:34-0:53
|---------------------------------------------------|
|---------------------------------------------------|
|---------------------------------------------------|
|-0-2-3-0---0-2-3-0-2-3-0--0-2-3-0---0-2-3-0-2-3-0--|
|-0-2-3-0---0-2-3-0-2-3-0--0-2-3-0---0-2-3-0-2-3-0--|
|-0-2-3-0---0-2-3-0-2-3-0--0-2-3-0---0-2-3-0-2-3-0--|

|---------------------------------------------------|
|---------------------------------------------------|
|---------------------------------------------------|
|-0-2-3-0---0-2-3-0-2-3-0--0-2-3-0---0-2-3-0-2-3-0--|
|-0-2-3-0---0-2-3-0-2-3-0--0-2-3-0---0-2-3-0-2-3-0--|
|-0-2-3-0---0-2-3-0-2-3-0--0-2-3-0---0-2-3-0-2-3-0--|


0:54-1:12
Figure out the strum pattern. its easy
|---------------------------------------|
|---------------------------------------|
|---------------------------------------|
|--10----------9----------5----------7--|
|--10----------9----------5----------7--|
|--10----------9----------5----------7--|


1:13-1:26
|------------------------------------|
|------------------------------------|
|------------------------------------|
|-2--0--2-2p0-xx-xx-xx--2--0--2-2p0--|
|-2--0--2-2p0-xx-xx-xx--2--0--2-2p0--|
|-2--0—-2-2p0-xx-xx-xx--2--0--2-2p0--|

|------------------------------------|
|------------------------------------|
|------------------------------------|
|-2--0--2-2p0-xx-xx-xx--2--0--2-2p0--|
|-2--0--2-2p0-xx-xx-xx--2--0--2-2p0--|
|-2--0—-2-2p0-xx-xx-xx--2--0--2-2p0--|

|------------------------------------|
|------------------------------------|
|------------------------------------|
|-2--0--2-2p0-xx-xx-xx--2--0--2-2p0--|
|-2--0--2-2p0-xx-xx-xx--2--0--2-2p0--|
|-2--0—-2-2p0-xx-xx-xx--2--0--2-2p0--|

|---------------------------------------|
|---------------------------------------|
|---------------------------------------|
|-2--0--2-2p0-xx-xx-xx--2--0--2-2p0--\--|
|-2--0--2-2p0-xx-xx-xx--2--0--2-2p0--\--|
|-2--0—-2-2p0-xx-xx-xx--2--0--2-2p0--\--|


1:27-1:45
|----------------------------------------------|
|----------------------------------------------|
|----------------------------------------------|
|----------------------------------------------|
|-----------2-0---------------2-0--------------|
|-2-2--2-2------2b—-2-2--2-2------10-10-10-10--|

|----------------------------------------------|
|----------------------------------------------|
|----------------------------------------------|
|----------------------------------------------|
|-----------2-0---------------2-0--------------|
|-2-2--2-2------2b—-2-2--2-2------10-10-10-10--|

|----------------------------------------------|
|----------------------------------------------|
|----------------------------------------------|
|----------------------------------------------|
|-----------2-0---------------2-0--------------|
|-2-2--2-2------2b—-2-2--2-2------10-10-10-10--|

|----------------------------------------------|
|----------------------------------------------|
|----------------------------------------------|
|----------------------------------------------|
|-----------2-0---------------2-0--------------|
|-2-2--2-2------2b—-2-2--2-2------10-10-10-10--|


1:46-2:07
|---------------------------------------|
|--------------------4---4------4---4---|
|--------------------7---7------7---7---|
|-2-0--2-6--0-5-------------------------|
|-2-0--2-6--0-5--000---0----000---0-----|
|-2-0--2-6--0-5--000---0----000---0-----|

|------------------------------------|
|------------------------------------|
|------------------------------------|
|-2-0--2-6--0-5----------------------|
|-2-0--2-6--0-5----------------------|
|-2-0--2-6--0-5--0-2--0-2--0-1--0-1--|

|---------------------------------------|
|--------------------4---4------4---4---|
|--------------------7---7------7---7---|
|-2-0--2-6--0-5-------------------------|
|-2-0--2-6--0-5--000---0----000---0-----|
|-2-0--2-6--0-5--000---0----000---0-----|

|-------------------------------------------------------|
|-------------------------------------------------------|
|-------------------------------------------------------|
|-2-0--2-6--0-5-----------------------------------------|
|-2-0--2-6--0-5-----------------------------------------|
|-2-0--2-6--0-5--0-2--0-2--0-1--0-1—-0-1--0-1—-0-1--0-1-|


2:08-2:26
|---------------------------------------|
|---------------------------------------|
|---------------------------------------|
|--10----------9----------5----------7--|
|--10----------9----------5----------7--|
|--10----------9----------5----------7--|


2:27-2:43
|------------------------------------|
|------------------------------------|
|------------------------------------|
|-2--0--2-2p0-xx-xx-xx--2--0--2-2p0--|
|-2--0--2-2p0-xx-xx-xx--2--0--2-2p0--|
|-2--0—-2-2p0-xx-xx-xx--2--0--2-2p0--|

|------------------------------------|
|------------------------------------|
|------------------------------------|
|-2--0--2-2p0-xx-xx-xx--2--0--2-2p0--|
|-2--0--2-2p0-xx-xx-xx--2--0--2-2p0--|
|-2--0—-2-2p0-xx-xx-xx--2--0--2-2p0--|

|------------------------------------|
|------------------------------------|
|------------------------------------|
|-2--0--2-2p0-xx-xx-xx--2--0--2-2p0--|
|-2--0--2-2p0-xx-xx-xx--2--0--2-2p0--|
|-2--0—-2-2p0-xx-xx-xx--2--0--2-2p0--|

|----------------------------------|
|----------------------------------|
|----------------------------------|
|-2--0--2-2p0-xx-xx-xx--2--0--2-2--|
|-2--0--2-2p0-xx-xx-xx--2--0--2-2--|
|-2--0—-2-2p0-xx-xx-xx--2--0--2-2--|




                            -----------------
                              04 NEON JESUS
                            -----------------

0:00-0:02
|--------------|
|--------------|
|-----7777-----|
|-----7777-----|
|-----5555-----|
|--------------|


0:03-0:21
|------------------------------------------------------|
|------------------------------------------------------|
|--------------------------------------------------3---|
|--------------------------------------------------1---|
|----------------6666666-----------------66666-----1---|
|-6p3p0--3h5p0-6-6666666—-6p3p0--3h5p0-6-66666--00-1---|
                                                ..
|------------------------------------------------------|
|------------------------------------------------------|
|--------------------------------------------------3---|
|--------------------------------------------------1---|
|----------------6666666-----------------66666-----1---|
|-6p3p0--3h5p0-6-6666666—-6p3p0--3h5p0-6-66666--00-1---|
                                                ..
|------------------------------------------------------|
|------------------------------------------------------|
|--------------------------------------------------3---|
|--------------------------------------------------1---|
|----------------6666666-----------------66666-----1---|
|-1h3p0--3h5p0-6-6666666—-1h3p0--3h5p0-6-66666--00-1---|
                                                ..
|------------------------------------------------------|
|------------------------------------------------------|
|--------------------------------------------------3---|
|--------------------------------------------------1---|
|----------------6666666-----------------66666-----1---|
|-1h3p0--3h5p0-6-6666666—-6p3p0--3h5p0-6-66666--00-1---|
                                                ..

0:22-0:31
|--------------------------------------------|
|--------------------------------------------|
|--------------------------------------------|
|--------------------------------------------|
|-0~---------------------------------0-0-----|
|-0~--12-12-12-12-12-12-12-12-12-12--0-0-----|

-----------------------------------------|
-----------------------------------------|
-----------------------------------------|
-----------------------------------------|
-----------------------------------------|
--12-12-12-12-12-12---3-3-3-3--6-6-6-6---|

|--------------------------------------------|
|--------------------------------------------|
|--------------------------------------------|
|--------------------------------------------|
|-0~---------------------------------0-0-----|
|-0~--12-12-12-12-12-12-12-12-12-12--0-0-----|

-----------------------------------------|
-----------------------------------------|
-----------------------------------------|
-----------------------------------------|
-----------------------------------------|
--12-12-12-12-12-12---3-3-3-3--6-6-6-6---|


0:32-0:40
|------------------------------------------------------|
|------------------------------------------------------|
|--------------------------------------------------3---|
|--------------------------------------------------1---|
|----------------6666666-----------------66666-----1---|
|-6p3p0--3h5p0-6-6666666—-1p3p0--3h5p0-6-66666--00-1---|
                                                ..
|--------------------------------------------------|
|--------------------------------------------------|
|--------------------------------------------------|
|--------------------------------------------------|
|----------------6666666------------------6-6-66---|
|-6p3p0--3h5p0-6-6666666—-1p3p0--3h5p0-00-6-6-66---|


0:41-0:51
|-----------------------------------------|
|-----------------------------------------|
|--7---------7---------7---------7--------|
|--7---------7---------7---------7--------|
|--5--0-0-0--5--0-0-0--5--0-0-0--5-0-0-0--|
|-----0-0-0-----0-0-0-----0-0-0----0-0-0--|

-------------------------------------|
-------------------------------------|
-7-------7---------7--------7--------|
-7-------7---------7--------7--------|
-5--0-0--5--0-0-0--5-0-0-0--5-0-0-0--|
----0-0-----0-0-0----0-0-0----0-0-0--|

|-----------------------------------------|
|-----------------------------------------|
|--7---------7---------7---------7--------|
|--7---------7---------7---------7--------|
|--5--0-0-0--5--0-0-0--5--0-0-0--5-0-0-0--|
|-----0-0-0-----0-0-0-----0-0-0----0-0-0--|


0:52-0:55
|------------------------|
|------------------------|
|--77-77-77-77-77-77-7---|
|--77-77-77-77-77-77-7---|
|--55-55-55-55-55-55-5---|
|------------------------|


0:56-1:24
|-------------------------------------------------|
|-------------------------------------------------|
|-------------------------------------------------|
|-0---------3---------5---------3-----7--xx-xx----|
|-0---------3---------5---------3-----7--xx-xx----|
|-0---------3---------5---------3-----7--xx-xx----|

--------------------------------------------------|
--------------------------------------------------|
--------------------------------------------------|
--3---------0---------5---------3-----7-----------|
--3---------0---------5---------3-----7-----------|
--3---------0---------5---------3-----7-----------|


1:25-1:39
|------------------------------------------------------------|
|------------------------------------------------------------|
|------------------------------------------------------------|
|------------------------------------------------------------|
|-0--0-00—-00----0--0-00--00----0--0-00--00------------------|
|-0--0-00--00----0--0-00--00----0--0-00--00---88888--11111---|

|------------------------------------------------------------|
|------------------------------------------------------------|
|------------------------------------------------------------|
|------------------------------------------------------------|
|-0--0-00—-00----0--0-00--00----0--0-00--00------------------|
|-0--0-00--00----0--0-00--00----0--0-00--00---88888--11111---|


1:40-1:42
|---------------------------------------------------|
|---------------------------------------------------|
|---------------------------------------------------|
|---------------------------------------------------|
|---------------------------------------------------|
|-12-0-0-12-12-0-12-0-0-12-12-0-12-0-0-12-12-0-12\--|


1:43-1:52
|------------------------------------------------------|
|------------------------------------------------------|
|--------------------------------------------------3---|
|--------------------------------------------------1---|
|----------------6666666-----------------66666-----1---|
|-6p3p0--3h5p0-6-6666666—-6p3p0--3h5p0-6-66666--00-1---|
                                                ..
|------------------------------------------------------|
|------------------------------------------------------|
|--------------------------------------------------3---|
|--------------------------------------------------1---|
|----------------6666666-----------------66666-----1---|
|-6p3p0--3h5p0-6-6666666—-1p3p0--3h5p0-6-66666--00-1---|
                                                ..


1:53-2:02
|--------------------------------------------|
|--------------------------------------------|
|--------------------------------------------|
|-0~---------------------------------0-0-----|
|-0~--12-12-12-12-12-12-12-12-12-12--0-0-----|

-----------------------------------------|
-----------------------------------------|
-----------------------------------------|
-----------------------------------------|
-----------------------------------------|
--12-12-12-12-12-12---3-3-3-3--6-6-6-6---|

|--------------------------------------------|
|--------------------------------------------|
|--------------------------------------------|
|-0~---------------------------------0-0-----|
|-0~--12-12-12-12-12-12-12-12-12-12--0-0-----|

-----------------------------------------|
-----------------------------------------|
-----------------------------------------|
-----------------------------------------|
-----------------------------------------|
--12-12-12-12-12-12---3-3-3-3--6-6-6-6---|

2:03-2:05
|------------------------|
|------------------------|
|--77-77-77-77-77-77-7---|
|--77-77-77-77-77-77-7---|
|--55-55-55-55-55-55-5---|
|------------------------|

2:06-2:34
|-------------------------------------------------|
|-------------------------------------------------|
|-------------------------------------------------|
|-0---------3---------5---------3-----7--xx-xx----|
|-0---------3---------5---------3-----7--xx-xx----|
|-0---------3---------5---------3-----7--xx-xx----|

--------------------------------------------------|
--------------------------------------------------|
--------------------------------------------------|
--3---------0---------5---------3-----7-----------|
--3---------0---------5---------3-----7-----------|
--3---------0---------5---------3-----7-----------|

2:35-2:49
|----------------------------------------------------|
|----------------------------------------------------|
|----------------------------------------------------|
|-3-3-3-3-3-3-3-3-3-3-3-3--0-0-0-0-0-0-0-0-0-0-0-0---|
|-3-3-3-3-3-3-3-3-3-3-3-3--0-0-0-0-0-0-0-0-0-0-0-0---|
|-3-3-3-3-3-3-3-3-3-3-3-3--0-0-0-0—0-0-0-0-0-0-0-0---|

|----------------------------------------------------|
|----------------------------------------------------|
|----------------------------------------------------|
|-3-3-3-3-3-3-3-3-3-3-3-3--0-0-0-0-0-0-7-7-7-7-7-7---|
|-3-3-3-3-3-3-3-3-3-3-3-3--0-0-0-0-0-0-7-7-7-7-7-7---|
|-3-3-3-3-3-3-3-3-3-3-3-3--0-0-0-0—0-0-7-7-7-7-7-7---|

2:50-3:13
|------------------------------------------------------------|
|------------------------------------------------------------|
|------------------------------------------------------------|
|------------------------------------------------------------|
|-0--0-00—-00----0--0-00--00----0--0-00--00------------------|
|-0--0-00--00----0--0-00--00----0--0-00--00---88888--11111---|

|------------------------------------------------------------|
|------------------------------------------------------------|
|------------------------------------------------------------|
|------------------------------------------------------------|
|-0--0-00—-00----0--0-00--00----0--0-00--00------------------|
|-0--0-00--00----0--0-00--00----0--0-00--00---88888--11111---|

|-------------------------------------------------------------|
|-------------------------------------------------------------|
|-------------------------------------------------------------|
|-------------------------------------------------------------|
|-0--0-00—-00----0--0-00--00----0--0-00--00----0-0-00---------|
|-0--0-00—-00----0--0-00--00----0--0-00--00----0-0-00---------|




                                ---------------
                                 05 D.R.U.G.S.
                                ---------------

0:00-0:21
|---------------------------------------------------|
|---------------------------------------------------|
|---------------------------------------------------|
|---------------------------------------------------|
|--------------------------------------0-000000-----|
|-12--0-12-0---12--0-12-0---12--0-12-0-0-000000-----|
                                         ......

|---------------------------------------------------|
|---------------------------------------------------|
|---------------------------------------------------|
|---------------------------------------------------|
|--------------------------------------0-000000-----|
|-12--0-12-0---12--0-12-0---12--0-12-0-0-000000-----|
                                         ......

|----------------------------------------------------|
|----------------------------------------------------|
|--14-14-14-14-14-14-14-14--12-12-12-12-12-12-12-12--|
|---x--x--x--x--x--x--x--x---x--x--x--x--x--x—-x—-x--|
|--12-12-12-12-12-12-12-12--10-10-10-10-10-10-10-10--|
|----------------------------------------------------|

|---------------------------------------------|
|---------------------------------------------|
|---------------------------------------------|
|---------------------------------------------|
|---------------------------------------0--0--|
|-12--0-12-0---12--0-12-0---12--0-12-0--0--0--|

|---------------------------------------------------|
|---------------------------------------------------|
|---------------------------------------------------|
|---------------------------------------------------|
|--------------------------------------0-000000-----|
|-12--0-12-0---12--0-12-0---12--0-12-0-0-000000-----|
                                         ......

|----------------------------------------------------|
|----------------------------------------------------|
|--14-14-14-14-14-14-14-14--12-12-12-12-12-12-12-12--|
|---x--x--x--x--x--x--x--x---x--x--x--x--x--x—-x—-x--|
|--12-12-12-12-12-12-12-12--10-10-10-10-10-10-10-10--|
|----------------------------------------------------|

|-----------------------------------------------------|
|-----------------------------------------------------|
|--15-15-15-15-15-15-15-15--14-14-14-14-14-14-14-14---|
|---x--x--x--x--x--x--x--x---x--x--x--x—-x—-x--x—-x---|
|--13-13-13-13-13-13-13-13--12-12-12-12-12-12-12-12---|
|-----------------------------------------------------|


0:22-0:38
|-------------------------------------|
|--------4\---------4\---------4\-----|
|--------7\---------7\---------7\-----|
|-1-1--------1-1--------1-1--------1--|
|-1-1--------1-1--------1-1--------1--|
|-1-1--0-----1-1--0-----1-1—-0-----1--|

|-------------------------------------|
|--------4\---------4\---------4\-----|
|--------7\---------7\---------7\-----|
|-1-1--------1-1--------1-1--------1--|
|-1-1--------1-1--------1-1--------1--|
|-1-1--0-----1-1--0-----1-1—-0-----1--|

|-------------------------------------|
|--------4\---------4\---------4\-----|
|--------7\---------7\---------7\-----|
|-1-1--------1-1--------1-1--------1--|
|-1-1--------1-1--------1-1--------1--|
|-1-1--0-----1-1--0-----1-1—-0-----1--|

|-------------------------------------|
|--------4\---------4\---------4\-----|
|--------7\---------7\---------7\-----|
|-1-1--------1-1--------1-1--------1--|
|-1-1--------1-1--------1-1--------1--|
|-1-1--0-----1-1--0-----1-1—-0-----1--|

0:39-0:44
|--------------------------------------------|
|--------------------------------------------|
|----10---10---10---10---10---10---10---10---|
|--0----0----0----0----0----0----0----0------|
|--------------------------------------------|
|--------------------------------------------|

|----------------------------------|
|----------------------------------|
|---9---9---9---9---9---9---9---9--|
|-0---0---0---0---0---0---0---0----|
|----------------------------------|
|----------------------------------|

0:45-1:08
|---------------------------------------------------|
|---------------------------------------------------|
|--9--9—-9—-9--9--9—-10-10-10-10-10-10-10-10-10-10--|
|--x—-x--x—-x--x--x--x--x--x--x--x--x--x--x--x--x---|
|--7--7--7--7--7--7--8--8--8--8--8--8--8--8--8--8---|
|---------------------------------------------------|

---------------------------------------------------|
---------------------------------------------------|
--9--9—-9—-9--9--9—-10-10-10-10-10-10-10-10-10-10--|
--x—-x--x—-x--x--x--x--x--x--x--x--x--x--x--x--x---|
--7--7--7--7--7--7--8--8--8--8--8--8--8--8--8--8---|
---------------------------------------------------|

-----------------------------------------------------|
-----------------------------------------------------|
--14-14-14-14-14-14---12-12-12-12-12-12-12-12-12-12--|
---x--x--x--x--x--x----x--x--x--x--x--x—-x—-x--x--x--|
--12-12-12-12-12-12---10-10-10-10-10-10-10-10-10-10--|
-----------------------------------------------------|

-----------------------------------------------|
-----------------------------------------------|
--14-14-14-14-14-14---12-12-12-12-12-12-xx-xx--|
---x--x--x--x--x--x----x--x--x--x--x--x—xx-xx--|
--12-12-12-12-12-12---10-10-10-10-10-10-xx-xx--|
-----------------------------------------------|

|---------------------------------------------------|
|---------------------------------------------------|
|--9--9—-9—-9--9--9—-10-10-10-10-10-10-10-10-10-10--|
|--x—-x--x—-x--x--x--x--x--x--x--x--x--x--x--x--x---|
|--7--7--7--7--7--7--8--8--8--8--8--8--8--8--8--8---|
|---------------------------------------------------|

---------------------------------------------------|
---------------------------------------------------|
--9--9—-9—-9--9--9—-10-10-10-10-10-10-10-10-10-10--|
--x—-x--x—-x--x--x--x--x--x--x--x--x--x--x--x--x---|
--7--7--7--7--7--7--8--8--8--8--8--8--8--8--8--8---|
---------------------------------------------------|

-----------------------------------------------------|
-----------------------------------------------------|
--14-14-14-14-14-14---12-12-12-12-12-12-12-12-12-12--|
---x--x--x--x--x--x----x--x--x--x--x--x—-x—-x--x--x--|
--12-12-12-12-12-12---10-10-10-10-10-10-10-10-10-10--|
-----------------------------------------------------|

-----------------------------------------------------|
-----------------------------------------------------|
--14-14-14-14-14-14---12-12-12-12-12-12-12-12-12-12--|
---x--x--x--x--x--x----x--x--x--x--x--x—-x—-x--x--x--|
--12-12-12-12-12-12---10-10-10-10-10-10-10-10-10-10--|
-----------------------------------------------------|

1:09-1:35
|---------------------------------------------------|
|---------------------------------------------------|
|---------------------------------------------------|
|---------------------------------------------------|
|--------------------------------------0-000000-----|
|-12--0-12-0---12--0-12-0---12--0-12-0-0-000000-----|
                                         ......

|---------------------------------------------|
|---------------------------------------------|
|---------------------------------------------|
|---------------------------------------------|
|---------------------------------------0--0--|
|-12--0-12-0---12--0-12-0---12--0-12-0--0--0--|

|---------------------------------------------------|
|---------------------------------------------------|
|---------------------------------------------------|
|---------------------------------------------------|
|--------------------------------------0-000000-----|
|-12--0-12-0---12--0-12-0---12--0-12-0-0-000000-----|
                                         ......

|---------------------------------------------------|
|---------------------------------------------------|
|---------------------------------------------------|
|---------------------------------------------------|
|--------------------------------------0-000000-----|
|-12--0-12-0---12--0-12-0---12--0-12-0-0-000000-----|
                                         ......

|----------------------------------------------------|
|----------------------------------------------------|
|--14-14-14-14-14-14-14-14--12-12-12-12-12-12-12-12--|
|---x--x--x--x--x--x--x--x---x--x--x--x--x--x—-x—-x--|
|--12-12-12-12-12-12-12-12--10-10-10-10-10-10-10-10--|
|----------------------------------------------------|

|---------------------------------------------|
|---------------------------------------------|
|---------------------------------------------|
|---------------------------------------------|
|---------------------------------------0--0--|
|-12--0-12-0---12--0-12-0---12--0-12-0--0--0--|

|---------------------------------------------------|
|---------------------------------------------------|
|---------------------------------------------------|
|---------------------------------------------------|
|--------------------------------------0-000000-----|
|-12--0-12-0---12--0-12-0---12--0-12-0-0-000000-----|
                                         ......

|----------------------------------------------------|
|----------------------------------------------------|
|--14-14-14-14-14-14-14-14--12-12-12-12-12-12-12-12--|
|---x--x--x--x--x--x--x--x---x--x--x--x--x--x—-x—-x--|
|--12-12-12-12-12-12-12-12--10-10-10-10-10-10-10-10--|
|----------------------------------------------------|

|-----------------------------------------------------|
|-----------------------------------------------------|
|--15-15-15-15-15-15-15-15--14-14-14-14-14-14-14-14---|
|---x--x--x--x--x--x--x--x---x--x--x--x—-x—-x--x—-x---|
|--13-13-13-13-13-13-13-13--12-12-12-12-12-12-12-12---|
|-----------------------------------------------------|


1:36-1:44
|------------------------------------------------------------|
|------------------------------------------------------------|
|-14--14--14-14---12--12--12-12---9--9--9-9---10--10--10-10--|
|--x---x---x--x----x---x---x--x---x--x—-x-x----x---x---x—-x--|
|-12--12--12-12---10--10--10-10---7--7--7-7----8---8---8—-8--|
|------------------------------------------------------------|

|------------------------------------------------------------|
|------------------------------------------------------------|
|-14--14--14-14---12--12--12-12---9--9--9-9---10--10--10-10--|
|--x---x---x--x----x---x---x--x---x--x—-x-x----x---x---x—-x--|
|-12--12--12-12---10--10--10-10---7--7--7-7----8---8---8—-8--|
|------------------------------------------------------------|


1:45-1:53
|-------------------------------------------|
|-------------------------------------------|
|--14------12------9------10-101010101010---|
|---x-------x------x-------x--x-x-x-x-x-x---|
|--12------10------7-------8--8-8-8-8-8-8---|
|---0-------0------0-------0--0-0-0-0-0-0---|


1:54-2:11
|-----------------------------------|
|-----------------------------------|
|-----------------------------------|
|-1-1-0----1-1-0----1-1-0----1-1-0--|
|-1-1-0----1-1-0----1-1-0----1-1-0--|
|-1-1-0—---1-1-0----1-1-0----1-1-0--|

|-----------------------------------|
|-----------------------------------|
|-----------------------------------|
|-1-1-0----1-1-0----1-1-0----1-1-0--|
|-1-1-0----1-1-0----1-1-0----1-1-0--|
|-1-1-0—---1-1-0----1-1-0----1-1-0--|

|-----------------------------------|
|-----------------------------------|
|-----------------------------------|
|-1-1-0----1-1-0----1-1-0----1-1-0--|
|-1-1-0----1-1-0----1-1-0----1-1-0--|
|-1-1-0—---1-1-0----1-1-0----1-1-0--|

|---------------------------------|
|---------------------------------|
|---------------------------------|
|-1-1-0----1-1-0----1-1-0----0-0--|
|-1-1-0----1-1-0----1-1-0----0-0--|
|-1-1-0—---1-1-0----1-1-0----0-0--|


2:12-2:36
|---------------------------------------------------|
|---------------------------------------------------|
|--9--9—-9—-9--9--9—-10-10-10-10-10-10-10-10-10-10--|
|--x—-x--x—-x--x--x--x--x--x--x--x--x--x--x--x--x---|
|--7--7--7--7--7--7--8--8--8--8--8--8--8--8--8--8---|
|---------------------------------------------------|

---------------------------------------------------|
---------------------------------------------------|
--9--9—-9—-9--9--9—-10-10-10-10-10-10-10-10-10-10--|
--x—-x--x—-x--x--x--x--x--x--x--x--x--x--x--x--x---|
--7--7--7--7--7--7--8--8--8--8--8--8--8--8--8--8---|
---------------------------------------------------|

-----------------------------------------------------|
-----------------------------------------------------|
--14-14-14-14-14-14---12-12-12-12-12-12-12-12-12-12--|
---x--x--x--x--x--x----x--x--x--x--x--x—-x—-x--x--x--|
--12-12-12-12-12-12---10-10-10-10-10-10-10-10-10-10--|
-----------------------------------------------------|

-----------------------------------------------|
-----------------------------------------------|
--14-14-14-14-14-14---12-12-12-12-12-12-xx-xx--|
---x--x--x--x--x--x----x--x--x--x--x--x—xx-xx--|
--12-12-12-12-12-12---10-10-10-10-10-10-xx-xx--|
-----------------------------------------------|

|---------------------------------------------------|
|---------------------------------------------------|
|--9--9—-9—-9--9--9—-10-10-10-10-10-10-10-10-10-10--|
|--x—-x--x—-x--x--x--x--x--x--x--x--x--x--x--x--x---|
|--7--7--7--7--7--7--8--8--8--8--8--8--8--8--8--8---|
|---------------------------------------------------|

---------------------------------------------------|
---------------------------------------------------|
--9--9—-9—-9--9--9—-10-10-10-10-10-10-10-10-10-10--|
--x—-x--x—-x--x--x--x--x--x--x--x--x--x--x--x--x---|
--7--7--7--7--7--7--8--8--8--8--8--8--8--8--8--8---|
---------------------------------------------------|

-----------------------------------------------------------|
-----------------------------------------------------------|
--14-14-14-14-14-14---12-12-12-12-12-12-12-12-12-12---14---|
---x--x--x--x--x--x----x--x--x--x--x--x—-x—-x--x--x----x---|
--12-12-12-12-12-12---10-10-10-10-10-10-10-10-10-10---12---|
-----------------------------------------------------------|


2:37-2:44
|----------------------------------------------------|
|----------------------------------------------------|
|----------------------------------------------------|
|----------------------------------------------------|
|----------------------------------------------------|
|-12--0-12-0---12--0-12-0---12--0-12-0---12--0-12-0--|

|--------------------------------------------|
|--------------------------------------------|
|--------------------------------------------|
|----------------------------------------0---|
|--------------------------------000000—-0---|
|-12--0-12-0---12--0-12-0----12--000000--0---|
                                 ......





                              ----------------------
                                06 FOR YOUR HEALTH
                              ----------------------


0:00-0:21
|------------------------------------------|
|------------------------------------------|
|------------------------------------------|
|-7~---5~---7~---5~---7~---5~---7~---5~----|
|-7~---5~---7~---5~---7~---5~---7~---5~----|
|-7~---5~---7~---5~---7~---5~---7~---5~----|

0:22-1:36
Repeat this like 16 times
--------------------------------------|
--------------------------------------|
--------------------------------------|
----7---7---7---7-----5---5---5---5---|
--------------------------------------|
--7---7---7---7-----5---5---5---5-----|



                              -----------
                                 TEETH
                              -----------

|-------------------|
|-------------------|
|---9-----9-----9---|
|-----7-----7-------|
|-0-----0-----0-----|
|-------------------|
This is played through pretty much the whole song.

0:00-0:37
|--------------------------------------------------------------------|
|--------------------------------------------------------------------|
|--------------------------------------------------------------------|
|--------------------------------------------------------------------|
|--------------------------------------------------------------------|
|-7-7-7-7-7-7-7-7-7-7-7-7-7-7-7-7--4-4-4-4-4-4-4-4--7-7-7-7-7-7-7-7—-|

--------------------------------------------------------------------|
--------------------------------------------------------------------|
--------------------------------------------------------------------|
--------------------------------------------------------------------|
--------------------------------------------------------------------|
-11-11-11-11-11-11-11-11-11-11-11-11-11-11-11-11--4-4-4-4-4-4-4-4---|

------------------|
------------------|
------------------|
------------------|
------------------|
-7-7-7-7-7-7-7-7--|

|--------------------------------------------------------------------|
|--------------------------------------------------------------------|
|--------------------------------------------------------------------|
|--------------------------------------------------------------------|
|--------------------------------------------------------------------|
|-7-7-7-7-7-7-7-7-7-7-7-7-7-7-7-7--4-4-4-4-4-4-4-4--7-7-7-7-7-7-7-7—-|

--------------------------------------------------------------------|
--------------------------------------------------------------------|
--------------------------------------------------------------------|
--------------------------------------------------------------------|
--------------------------------------------------------------------|
-11-11-11-11-11-11-11-11-11-11-11-11-11-11-11-11--4-4-4-4-4-4-4-4---|

------------------|
------------------|
------------------|
------------------|
------------------|
-7-7-7-7-7-7-7-7--|


0:38-0:49
|--------------------------------------------------------|
|--------------------------------------------------------|
|---9-----9-----9-----9-----9------9-----9-----9-----9---|
|-----7-----7-----------7-----7------------7-----7-------|
|-0-----0-----0-----0-----0-----0------0-----0-----0-----|
|--------------------------------------------------------|

--------------------------------------------------------|
--------------------------------------------------------|
---9-----9-----9-----9-----9------9-----9-----9-----9---|
-----7-----7-----------7-----7------------7-----7-------|
-0-----0-----0-----0-----0-----0------0-----0-----0-----|
--------------------------------------------------------|


0:50-1:20
|--------------------------------------------------------------------|
|--------------------------------------------------------------------|
|--------------------------------------------------------------------|
|--------------------------------------------------------------------|
|--------------------------------------------------------------------|
|-7-7-7-7-7-7-7-7-7-7-7-7-7-7-7-7--4-4-4-4-4-4-4-4--7-7-7-7-7-7-7-7—-|

--------------------------------------------------------------------|
--------------------------------------------------------------------|
--------------------------------------------------------------------|
--------------------------------------------------------------------|
--------------------------------------------------------------------|
-11-11-11-11-11-11-11-11-11-11-11-11-11-11-11-11--4-4-4-4-4-4-4-4---|

------------------|
------------------|
------------------|
------------------|
------------------|
-7-7-7-7-7-7-7-7--|

|--------------------------------------------------------------------|
|--------------------------------------------------------------------|
|--------------------------------------------------------------------|
|--------------------------------------------------------------------|
|--------------------------------------------------------------------|
|-7-7-7-7-7-7-7-7-7-7-7-7-7-7-7-7--4-4-4-4-4-4-4-4--7-7-7-7-7-7-7-7—-|

--------------------------------------------------------------------|
--------------------------------------------------------------------|
--------------------------------------------------------------------|
--------------------------------------------------------------------|
--------------------------------------------------------------------|
-11-11-11-11-11-11-11-11-11-11-11-11-11-11-11-11--4-4-4-4-4-4-4-4---|

------------------|
------------------|
------------------|
------------------|
------------------|
-7-7-7-7-7-7-7-7--|


1:21-1:52
|--------------------------------------------------------------------|
|--------------------------------------------------------------------|
|--------------------------------------------------------------------|
|--------------------------------------------------------------------|
|--------------------------------------------------------------------|
|-7-7-7-7-7-7-7-7-7-7-7-7-7-7-7-7--4-4-4-4-4-4-4-4-4—4-4-4-4-4-4-4---|

|--------------------------------------------------------------------|
|--------------------------------------------------------------------|
|--------------------------------------------------------------------|
|--------------------------------------------------------------------|
|--------------------------------------------------------------------|
|-0-0-0-0-0-0-0-0-0-0-0-0-0-0-0-0--4-4-4-4-4-4-4-4--7-7-7-7-7-7-7-7—-|

|--------------------------------------------------------------------|
|--------------------------------------------------------------------|
|--------------------------------------------------------------------|
|--------------------------------------------------------------------|
|--------------------------------------------------------------------|
|-0-0-0-0-0-0-0-0-0-0-0-0-0-0-0-0--4-4-4-4-4-4-4-4-4—4-4-4-4-4-4-4---|

|--------------------------------------------------------|
|--------------------------------------------------------|
|--------------------------------------------------------|
|--------------------------------------------------------|
|---------------------------------------------------7\---|
|-0-0-0-0-0-0-0-0-0-0-0-0-0-0-0-0--4-4-4-4-4-4-4-4—-7\---|


1:53-2:24
|--------------------------------------------------------------------|
|--------------------------------------------------------------------|
|--------------------------------------------------------------------|
|--------------------------------------------------------------------|
|--------------------------------------------------------------------|
|-7-7-7-7-7-7-7-7-7-7-7-7-7-7-7-7--4-4-4-4-4-4-4-4--7-7-7-7-7-7-7-7—-|

--------------------------------------------------------------------|
--------------------------------------------------------------------|
--------------------------------------------------------------------|
--------------------------------------------------------------------|
--------------------------------------------------------------------|
-11-11-11-11-11-11-11-11-11-11-11-11-11-11-11-11--4-4-4-4-4-4-4-4---|

------------------|
------------------|
------------------|
------------------|
------------------|
-7-7-7-7-7-7-7-7--|

|--------------------------------------------------------------------|
|--------------------------------------------------------------------|
|--------------------------------------------------------------------|
|--------------------------------------------------------------------|
|--------------------------------------------------------------------|
|-7-7-7-7-7-7-7-7-7-7-7-7-7-7-7-7--4-4-4-4-4-4-4-4--7-7-7-7-7-7-7-7—-|

--------------------------------------------------------------------|
--------------------------------------------------------------------|
--------------------------------------------------------------------|
--------------------------------------------------------------------|
--------------------------------------------------------------------|
-11-11-11-11-11-11-11-11-11-11-11-11-11-11-11-11--4-4-4-4-4-4-4-4---|

------------------|
------------------|
------------------|
------------------|
------------------|
-7-7-7-7-7-7-7-7--|


2:25-2:36
|--------------------------------------------------------|
|--------------------------------------------------------|
|---9-----9-----9-----9-----9------9-----9-----9-----9---|
|-----7-----7-----------7-----7------------7-----7-------|
|-0-----0-----0-----0-----0-----0------0-----0-----0-----|
|--------------------------------------------------------|

--------------------------------------------------------|
--------------------------------------------------------|
---9-----9-----9-----9-----9------9-----9-----9-----9---|
-----7-----7-----------7-----7------------7-----7-------|
-0-----0-----0-----0-----0-----0------0-----0-----0-----|
--------------------------------------------------------|


2:37-3:08
|--------------------------------------------------------------------|
|--------------------------------------------------------------------|
|--------------------------------------------------------------------|
|--------------------------------------------------------------------|
|--------------------------------------------------------------------|
|-7-7-7-7-7-7-7-7-7-7-7-7-7-7-7-7--4-4-4-4-4-4-4-4-4—4-4-4-4-4-4-4---|

|--------------------------------------------------------------------|
|--------------------------------------------------------------------|
|--------------------------------------------------------------------|
|--------------------------------------------------------------------|
|--------------------------------------------------------------------|
|-0-0-0-0-0-0-0-0-0-0-0-0-0-0-0-0--4-4-4-4-4-4-4-4--7-7-7-7-7-7-7-7—-|

|--------------------------------------------------------------------|
|--------------------------------------------------------------------|
|--------------------------------------------------------------------|
|--------------------------------------------------------------------|
|--------------------------------------------------------------------|
|-0-0-0-0-0-0-0-0-0-0-0-0-0-0-0-0--4-4-4-4-4-4-4-4-4—4-4-4-4-4-4-4---|

|--------------------------------------------------------------------|
|--------------------------------------------------------------------|
|--------------------------------------------------------------------|
|--------------------------------------------------------------------|
|--------------------------------------------------------------------|
|-0-0-0-0-0-0-0-0-0-0-0-0-0-0-0-0--4-4-4-4-4-4-4-4--7-7-7-7-7-7-7-7--|

3:09-3:25
|--------------------------------------------------------|
|--------------------------------------------------------|
|---9-----9-----9-----9-----9------9-----9-----9-----9---|
|-----7-----7-----------7-----7------------7-----7-------|
|-0-----0-----0-----0-----0-----0------0-----0-----0-----|
|--------------------------------------------------------|

--------------------------------------------------------|
--------------------------------------------------------|
---9-----9-----9-----9-----9------9-----9-----9-----9---|
-----7-----7-----------7-----7------------7-----7-------|
-0-----0-----0-----0-----0-----0------0-----0-----0-----|
--------------------------------------------------------|

-----------------------------------------|
-----------------------------------------|
----9-----9-----9-----9-----9------9-----|
------7-----7-----------7-----7----------|
--0-----0-----0-----0-----0-----0--------|
-----------------------------------------|




                            ------------------------
                              MECHANICAL ORCHESTRA
                            ------------------------

0:00-0:11
-------------------------------------|
-------------------------------------|
-------------------------------------|
--------------------------------5-3--|
-5----------------------5-------5-3--|
---2---2-2-2-2-2-2-00-----2---2-5-3--|
                    ..

-------------------------------------|
-------------------------------------|
-------------------------------------|
--------------------------------5-3--|
-5----------------------5-------5-3--|
---2---2-2-2-2-2-2-00-----2---2-5-3--|
                   ..

0:12-0:21
|--------------------------------------0-x-0-|
|--------------------------------------5-x-5-|
|--------------------------------------x-x-x-|
|--------------------------------------3-x-3-|
|----------------------------------------x---|
|-00-0-00-0-00-0-00--00-00--00-0-00--0-------|
                     .. ..

|--------------------------------------0-x-0-|
|--------------------------------------5-x-5-|
|--------------------------------------x-x-x-|
|--------------------------------------3-x-3-|
|----------------------------------------x---|
|-00-0-00-0-00-0-00--00-00--00-0-00--0-------|
                     .. ..

0:22-0:32
|-----------------------------------------------------------|
|-----------------------------------------------------------|
|------------------------7-7-7-7-7-7-------------55555555---|
|---------------------5--5-5-5-5-5-5--1-1-1-1-1--33333333---|
|---------------------5--5-5-5-5-5-5--1-1-1-1-1—-33333333---|
|-0--2-2-2-2-2-2-2-2—-5--5-5-5-5-5-5--1-1-1-1-1—-33333333---|


0:33-0:47
|---------------------------------------------------------|
|---------------------------------------------------------|
|14----14----14--14---14---14---14-----14----14----14-14\-|
|12----12----12--12---12---12---12-----12----12----12-12\-|
|13----13----13--13---13---13---13-----13----13----13-13\-|
|---00-----00-------00---00---00-----00----00----00-------|
    ..     ..       ..   ..   ..     ..    ..    ..

|---------------------------------------------|
|---------------------------------------------|
|-14----14-----14-----14-14----14-14-14-14----|
|-12----12-----12-----12-12----12-12-12-12----|
|-12----12-----12--0--12-12----12-12-12-12----|
|-12-00-12--00-12--0--12-12--0-12-12-12-12----|
     ..     ..     .         .

|---------------------------------------------|
|---------------------------------------------|
|-14----14-----14-----14-14----14-14-14-14----|
|-12----12-----12-----12-12----12-12-12-12----|
|-12----12-----12--0--12-12----12-12-12-12----|
|-12-00-12--00-12--0--12-12--0-12-12-12-12----|
     ..     ..     .         .

|---------------------------------------------|
|---------------------------------------------|
|-14----14-----14-----14-14----14-14-14-14----|
|-12----12-----12-----12-12----12-12-12-12----|
|-12----12-----12--0--12-12----12-12-12-12----|
|-12-00-12--00-12--0--12-12--0-12-12-12-12----|
     ..     ..     .         .

|---------------------------------------------|
|---------------------------------------------|
|-14----14-----14-----14-14----14-14-14-14----|
|-12----12-----12-----12-12----12-12-12-12----|
|-12----12-----12--0--12-12----12-12-12-12----|
|-12-00-12--00-12--0--12-12--0-12-12-12-12----|
     ..     ..     .         .


0:48-1:03
|-------------------------------------------------------|
|-------------------------------------------------------|
|----7-7-7-7-7-7----101010101010------------------------|
|----5-5-5-5-5-5-----8-8-8-8-8-8----3h5-3h5\-3h5-3h5----|
|----5-5-5-5-5-5---8-8-8-8-8-8-8----3h5-3h5\-3h5-3h5----|
|----5-5-5-5-5-5---8-8-8-8-8-8-8----3h5-3h5\-3h5-3h5----|
                   .
----------------------------------------------|
----------------------------------------------|
----------------------------------------------|
-3h5-3h5--------1-1-1-1-----------------------|
-3h5-3h5--3-3---1-1-1-1--00000000-33333333----|
-3h5-3h5--3-----1-1-1-1--00000000-33333333----|


1:04-1:13
|------------------------------------------|
|------------------------------------------|
|------------------------------------555---|
|--------------------------------5-3-333---|
|-5-----------------------5------5-3-333---|
|---2---2-2-2-2-2-2-2-00---2---2-5-3-333---|
                      ..

---------------------------------------|
---------------------------------------|
---------------------------------------|
--------------------------------5-3----|
-5-----------------------5------5-3----|
---2---2-2-2-2-2-2-2-00----2--2-5-3----|
                     ..


1:14-1:34
|---------------------------------------|
|---------------------------------------|
|---------------------------------------|
|----------------------------5~---------|
|-5-------5---5-------5------5~-5-55-5--|
|---2--00---2---2-00----2-00-5~-5-55-5--|
       ..         ..      ..

|------------------------------------|
|------------------------------------|
|------------------------------------|
|------------------------------0~-\--|
|-5-------5---5--------5-------0~-\--|
|---2--00---2---2-00-----2-00--0~-\--|
       ..         ..       ..

|---------------------------------------|
|---------------------------------------|
|---------------------------------------|
|----------------------------5~---------|
|-5-------5---5-------5------5~-5-55-5--|
|---2--00---2---2-00----2-00-5~-5-55-5--|
       ..         ..      ..

|------------------------------------|
|------------------------------------|
|------------------------------------|
|------------------------------0~-\--|
|-5-------5---5--------5-------0~-\--|
|---2--00---2---2-00-----2-00--0~-\--|
       ..         ..       ..


1:35-1:45
|-----------------------------------------------------------|
|-----------------------------------------------------------|
|------------------------7-7-7-7-7-7-------------55555555---|
|---------------------5--5-5-5-5-5-5--1-1-1-1-1--33333333---|
|---------------------5--5-5-5-5-5-5--1-1-1-1-1—-33333333---|
|-0--2-2-2-2-2-2-2-2—-5--5-5-5-5-5-5--1-1-1-1-1—-33333333---|


1:46-2:01
|-----------------------------------------------------|
|-----------------------------------------------------|
|----7-7-7-7-7-7----101010101010----------------------|
|----5-5-5-5-5-5----8-8-8-8-8-8---3h5-3h5\-3h5-3h5----|
|--5-5-5-5-5-5-5--8-8-8-8-8-8-8---3h5-3h5\-3h5-3h5----|
|--5-5-5-5-5-5-5--8-8-8-8-8-8-8---3h5-3h5\-3h5-3h5----|
   .              .
-----------------------------------------------|
-----------------------------------------------|
-----------------------------------------------|
-3h5-3h5--------1-1-1-1------------------------|
-3h5-3h5--3-3---1-1-1-1--00000000-33333333-----|
-3h5-3h5--3-----1-1-1-1--00000000-33333333-----|


2:02-2:26
|----------------------------------------|
|----------------------------------------|
|---7---7--3-33333----7---5--3-333333----|
|---5---5--1-11111----5---3--1-111111----|
|-5-5-5-5--1-11111--5-5-3-3--1-111111----|
|-5---5----1-11111--5---3----1-111111----|

|---------------------------------------|
|---------------------------------------|
|---------------------------------------|
|---------------------------------------|
|---------------------------------------|
|-55555555--7777-8888--11-111-111-111---|

-------------------------------------|
-------------------------------------|
-------------------------------------|
-------------------------------------|
-------------------------------------|
-55555555--7777-8888-11-111-111-111--|

|----------------------------------|
|----------------------------------|
|----------------------------------|
|-----------------11-111-111-111---|
|-----------------11-111-111-111---|
|-11-111-111-111--11-111-111-111---|


2:27-2:37
|--------------------------------------0-x-0-|
|--------------------------------------5-x-5-|
|--------------------------------------x-x-x-|
|--------------------------------------3-x-3-|
|----------------------------------------x---|
|-00-0-00-0-00-0-00--00-00--00-0-00--0-------|
                     .. ..

|--------------------------------------0-x-0-|
|--------------------------------------5-x-5-|
|--------------------------------------x-x-x-|
|--------------------------------------3-x-3-|
|----------------------------------------x---|
|-00-0-00-0-00-0-00--00-00--00-0-00--0-------|
                     .. ..


2:38-2:47
|-------------------------------------|
|-------------------------------------|
|14----14----14--14---14---14---14----|
|12----12----12--12---12---12---12----|
|13----13----13--13---13---13---13----|
|---00-----00-------00---00---00------|
    ..     ..       ..   ..   ..

--------------------------------|
--------------------------------|
---14----14---14-14---14---14---|
---12----12---12-12---12---12---|
---13----13---13-13---13---13---|
-00----00---00------00---00-----|
 ..    ..   ..      ..   ..

|---------------------------------------------|
|---------------------------------------------|
|-14----14-----14-----14-14----14-14-14-14----|
|-12----12-----12-----12-12----12-12-12-12----|
|-12----12-----12--0--12-12----12-12-12-12----|
|-12-00-12--00-12--0--12-12--0-12-12-12-12----|
     ..     ..     .         .

|-------------------------|
|-------------------------|
|14------14------14--14---|
|12------12------12--12---|
|12------12------12--12---|
|12--00--12—-00--12--12---|


2:48-3:28
|-------------------------------------|
|-------------------------------------|
|---------------------------------5~--|
|-----------------------------5-2-3~--|
|-5-------5---5-------5-------5-2-3~--|
|---2--00---2---2-00----2-00--5-2-3~--|
       ..        ..       ..

|-------------------------------------|
|-------------------------------------|
|---------------------------------5~--|
|-----------------------------5-2-3~--|
|-5-------5---5-------5-------5-2-3~--|
|---2--00---2---2-00----2-00--5-2-3~--|
       ..         ..      ..

|--------------------------------------|
|--------------------------------------|
|----------------------------------4~--|
|------------------------------4-1-2~--|
|-4--------4---4-------4-------4-1-2~--|
|---1--00----1---1-00----1-00--4-1-2~--|
       ..          ..      ..

|-------------------------------------------|
|-------------------------------------------|
|---------------------------------------4~--|
|-4--1------4--1--4--1-----4--1-----4-1-2~--|
|-4--1------4--1--4--1-----4--1-----4-1-2~--|
|-4--1--00--4--1--4--1-00--4--1-00--4-1-2~--|
       ..          ..      ..



                              ----------------
                                LOVELY BONES
                              ----------------

0:00-0:15
|------------------------------------------------------|
|------------------------------------------------------|
|-77777--77777------------------3-33-33-33-3-33-33-3---|
|-55555--55555---00000--00000---1-11-11-11-1-11-11-1---|
|-55555--55555---00000--00000---1-11-11-11-1-11-11-1---|
|-55555--55555---00000--00000---1-11-11-11-1-11-11-1---|

|--------------------------------------------------|
|--------------------------------------------------|
|-77777--77777------------------3-33-33-33-3-33~---|
|-55555--55555---00000--00000---1-11-11-11-1-11~---|
|-55555--55555---00000--00000---1-11-11-11-1-11~---|
|-55555--55555---00000--00000---1-11-11-11-1-11~---|


0:16-0:47
|---------------------------------------------------------------------|
|---------------------------------------------------------------------|
|----------7~---------------7~-------------3~----5~---------5~--------|
|----5~--------------5~----------------1~----------3~---------3~------|
|-------5~--------------5~---------1~----------------3~---------3~----|
|-5~-------------5~------------1~----------------------3~---------3~--|

|---------------------------------------------------------------------|
|---------------------------------------------------------------------|
|----------7~---------------7~-------------3~----5~---------5~--------|
|----5~--------------5~----------------1~----------3~---------3~------|
|-------5~--------------5~---------1~----------------3~---------3~----|
|-5~-------------5~------------1~----------------------3~---------3~--|


0:48-1:03
|----------------------------------------------------------------------|
|----8--------8-------8-------8---------8-------8--------8--------8----|
|-------7--------7-------7-------7--------7-------7--------7--------7--|
|--0--------0-------0-------0--------0--------0-------0-------0--------|
|----------------------------------------------------------------------|
|----------------------------------------------------------------------|

|-20b-20b-20b-20b-20b-20b-20b-20b-20b-20b-20b-20~---|
|---------------------------------------------------|
|---------------------------------------------------|
|---------------------------------------------------|
|---------------------------------------------------|
|---------------------------------------------------|

|----------------------------------------------------------------------|
|----8--------8-------8-------8---------8-------8--------8--------8----|
|-------7--------7-------7-------7--------7-------7--------7--------7--|
|--0--------0-------0-------0--------0--------0-------0-------0--------|
|----------------------------------------------------------------------|
|----------------------------------------------------------------------|

|-20b-20b-20b-20b-20b-20b-20b-20b-20b-20b-20b-20~---|
|---------------------------------------------------|
|---------------------------------------------------|
|---------------------------------------------------|
|---------------------------------------------------|
|---------------------------------------------------|


1:04-1:19
|------------------------------------------------------------------------|
|------------------------------------------------------------------------|
|-7~---5~---3~---5~---7~---5~---3~---------------------------------------|
|-5~---3~---1~---3~---5~---3~---1~---------------------------------------|
|-5~---3~---1~---3~---5~---3~---1~---------------------------------------|
|-5~---3~---1~---3~---5~---3~---1~--12-12-12-12-12-12-12-12-12-12-12-12--|


1:20-1:35
|------------------------------------------------------|
|------------------------------------------------------|
|-77777--77777------------------3-33-33-33-3-33-33-3---|
|-55555--55555---00000--00000---1-11-11-11-1-11-11-1---|
|-55555--55555---00000--00000---1-11-11-11-1-11-11-1---|
|-55555--55555---00000--00000---1-11-11-11-1-11-11-1---|

|--------------------------------------------------|
|--------------------------------------------------|
|-77777--77777------------------3-33-33-33-3-33~---|
|-55555--55555---00000--00000---1-11-11-11-1-11~---|
|-55555--55555---00000--00000---1-11-11-11-1-11~---|
|-55555--55555---00000--00000---1-11-11-11-1-11~---|


1:36-2:07
|---------------------------------------------------------------------|
|---------------------------------------------------------------------|
|----------7~---------------7~-------------3~----5~---------5~--------|
|----5~--------------5~----------------1~----------3~---------3~------|
|-------5~--------------5~---------1~----------------3~---------3~----|
|-5~-------------5~------------1~----------------------3~---------3~--|

|---------------------------------------------------------------------|
|---------------------------------------------------------------------|
|----------7~---------------7~-------------3~----5~---------5~--------|
|----5~--------------5~----------------1~----------3~---------3~------|
|-------5~--------------5~---------1~----------------3~---------3~----|
|-5~-------------5~------------1~----------------------3~---------3~--|


2:08-2:23
|----------------------------------------------------------------------|
|----8--------8-------8-------8---------8-------8--------8--------8----|
|-------7--------7-------7-------7--------7-------7--------7--------7--|
|--0--------0-------0-------0--------0--------0-------0-------0--------|
|----------------------------------------------------------------------|
|----------------------------------------------------------------------|

|-20b-20b-20b-20b-20b-20b-20b-20b-20b-20b-20b-20~---|
|---------------------------------------------------|
|---------------------------------------------------|
|---------------------------------------------------|
|---------------------------------------------------|
|---------------------------------------------------|

|----------------------------------------------------------------------|
|----8--------8-------8-------8---------8-------8--------8--------8----|
|-------7--------7-------7-------7--------7-------7--------7--------7--|
|--0--------0-------0-------0--------0--------0-------0-------0--------|
|----------------------------------------------------------------------|
|----------------------------------------------------------------------|

|-20b-20b-20b-20b-20b-20b-20b-20b-20b-20b-20b-20~---|
|---------------------------------------------------|
|---------------------------------------------------|
|---------------------------------------------------|
|---------------------------------------------------|
|---------------------------------------------------|


2:24-2:55
|--------------------------------|
|--------------------------------|
|-7---5---3---5---7---5---3---5--|
|-5---3---1---3---5---3---1---3--|
|-5---3---1---3---5---3---1—--3--|
|-5---3---1---3---5---3---1—--3--|

|----------------------------------------------------------|
|----------------------------------------------------------|
|-77777--77777------------------3-33-33-33---5-55-55-55----|
|-55555--55555---00000--00000---1-11-11-11---3-33-33-33----|
|-55555--55555---00000--00000---1-11-11-11---3-33-33-33----|
|-55555--55555---00000--00000---1-11-11-11---3-33-33-33----|

|-------------------|
|-------------------|
|-7---5---3---5-----|
|-5---3---1---3-----|
|-5---3---1---3-----|
|-5---3---1---3-----|


2:56-3:43
|--------------------------------------------------------------------------|
|--------------------------------------------------------------------------|
|--------------------------------------------------------------------------|
|--------------------------------------------------------------------------|
|--------------------------------------------------------------------------|
|-12-12-12-12-12-12-12-12-12-12-12-12--10-10-10-10-10-10-10-10-10-10-10-10-|

|------------------------------------------------------|
|------------------------------------------------------|
|------------------------------------------------------|
|------------------------------------------------------|
|------------------------------------------------------|
|-5-5-5-5-5-5-5-5-5-5-5-5--8-8-8-8-8-8--7-7-7-7-7-7----| x6


3:43-3:51
|-----------|
|-----------|
|-----------|
|----12~----|
|----12~----|
|----12~----|


3:52-4:23
|-5b--5-5-5-5-5--5-5-5-5-5h6--6-6-6-6-6--10-10-10-10-10-10-----|
|--------------------------------------------------------------|
|--------------------------------------------------------------|
|--------------------------------------------------------------|
|--------------------------------------------------------------|
|--------------------------------------------------------------|

|-11-11-11-11-11-11--8-8-8-8-8-8--10-10-10-10-10-10------------|
|--------------------------------------------------------------|
|--------------------------------------------------------------|
|--------------------------------------------------------------|
|--------------------------------------------------------------|
|--------------------------------------------------------------|

|-5b--5-5-5-5-5--5-5-5-5-5h6--6-6-6-6-6--10-10-10-10-10-10-----|
|--------------------------------------------------------------|
|--------------------------------------------------------------|
|--------------------------------------------------------------|
|--------------------------------------------------------------|
|--------------------------------------------------------------|

|-11-11-11-11-11-11--13-13-13-13-13-13--15-15-15-15-15-15------|
|--------------------------------------------------------------|
|--------------------------------------------------------------|
|--------------------------------------------------------------|
|--------------------------------------------------------------|
|--------------------------------------------------------------|

|-5b--5-5-5-5-5--5-5-5-5-5h6--6-6-6-6-6--10-10-10-10-10-10-----|
|--------------------------------------------------------------|
|--------------------------------------------------------------|
|--------------------------------------------------------------|
|--------------------------------------------------------------|
|--------------------------------------------------------------|

|-11-11-11-11-11-11--8-8-8-8-8-8--10-10-10-10-10-10------------|
|--------------------------------------------------------------|
|--------------------------------------------------------------|
|--------------------------------------------------------------|
|--------------------------------------------------------------|
|--------------------------------------------------------------|

|-5b--5-5-5-5-5--5-5-5-5-5h6--6-6-6-6-6--10-10-10-10-10-10-----|
|--------------------------------------------------------------|
|--------------------------------------------------------------|
|--------------------------------------------------------------|
|--------------------------------------------------------------|
|--------------------------------------------------------------|

|-11-11-11-11-11-11--13-13-13-13-13-13--15-15-15-15-15-15------|
|--------------------------------------------------------------|
|--------------------------------------------------------------|
|--------------------------------------------------------------|
|--------------------------------------------------------------|
|--------------------------------------------------------------|


4:24-4:39
|-17b--17-17-17-17—-17b--17-17-17-17—-18b--18-18--------------------|
|------------------------------------------------15-15-15-15-15-15--|
|-------------------------------------------------------------------|
|-------------------------------------------------------------------|
|-------------------------------------------------------------------|
|-------------------------------------------------------------------|

|--------------------------------------------------------------|
|--16-16-16-16-16-16—-15h16p15--13--13-13--15-15-15-15-15-15---|
|--------------------------------------------------------------|
|--------------------------------------------------------------|
|--------------------------------------------------------------|
|--------------------------------------------------------------|

|-------------------------------------------------------------|
|-15h16p15-—13h15p13-—15h16p15—-13h15p13—-15h16p15—-13h15p13--|
|-------------------------------------------------------------|
|-------------------------------------------------------------|
|-------------------------------------------------------------|
|-------------------------------------------------------------|

|---------------------------------------------------------------|
|-15h16p15—-13h15p13-—15h16—-15h16—-15h16—-15h16—-15h16--15h16--|
|---------------------------------------------------------------|
|---------------------------------------------------------------|
|---------------------------------------------------------------|
|---------------------------------------------------------------|

|---------------------------------------|
|-16-16-16-16-16-16--15-15-15-15-15-15--|
|---------------------------------------|
|---------------------------------------|
|---------------------------------------|
|---------------------------------------|


4:40-5:22
|--10-10-10--11-11-11--10-10-10--8-8-8--10-10-10--8-8-8--6-6-6--8-8-8-|
|---------------------------------------------------------------------|
|---------------------------------------------------------------------|
|---------------------------------------------------------------------|
|---------------------------------------------------------------------|
|---------------------------------------------------------------------|

|--5b-5-5-5-5-5h6b—-5b-5-5-5-5-5h6b-------|
|-----------------------------------------|
|-----------------------------------------|
|-----------------------------------------|
|-----------------------------------------|
|-----------------------------------------|

|--10-10-10--11-11-11--10-10-10--8-8-8--10-10-10--8-8-8--6-6-6--8-8-8-|
|---------------------------------------------------------------------|
|---------------------------------------------------------------------|
|---------------------------------------------------------------------|
|---------------------------------------------------------------------|
|---------------------------------------------------------------------|

|-5b-5-5-5-5-5b-5-5-5-5-5h6--6-6-6-------|
|----------------------------------------|
|----------------------------------------|
|----------------------------------------|
|----------------------------------------|
|----------------------------------------|

|-17-17-17-17-17-17--18-18-18-18-18-18--20-20-20-20-20-20--|
|----------------------------------------------------------|
|----------------------------------------------------------|
|----------------------------------------------------------|
|----------------------------------------------------------|
|----------------------------------------------------------|

|-17-17-17-17-17-17—-17b-17b-17b-17b-17b--17b-17-17b-17-17b---|
|-------------------------------------------------------------|
|-------------------------------------------------------------|
|-------------------------------------------------------------|
|-------------------------------------------------------------|
|-------------------------------------------------------------|

|--10-10-10--11-11-11--10-10-10--8-8-8--10-10-10--8-8-8--6-6-6--8-8-8-|
|---------------------------------------------------------------------|
|---------------------------------------------------------------------|
|---------------------------------------------------------------------|
|---------------------------------------------------------------------|
|---------------------------------------------------------------------|

|---5b-----5~----|
|----------------|
|----------------|
|----------------|
|----------------|
|----------------|




                           ----------------------
                             CASSANDRA SYNDROME
                           ----------------------

0:00-0:23
|--------------------------------------------------------------------|
|--------------------------------------------------------------------|
|-44--—4-----5-5-----44---4-----5-5-----44---4-----5-5----44---4-----|
|-22---2-----2-2-----22---2-----2-2-----22---2-----2-2----22---2-0~--|
|-22-0-2---2-2-2-0---22-0-2---2-2-2-0---22-0-2---2-2-2-0--22-0-2-0~--|
|-22-0-2---2-2-2-0---22-0-2---2-2-2-0---22-0-2---2-2-2-0--22-0-2-0~--|
     .     .     .      .     .     .      .     .     .     .

|--------------------------------------------------------------------|
|--------------------------------------------------------------------|
|-44--—4-----5-5-----44---4-----5-5-----44---4-----5-5----44---4-----|
|-22---2-----2-2-----22---2-----2-2-----22---2-----2-2----22---2-0~--|
|-22-0-2---2-2-2-0---22-0-2---2-2-2-0---22-0-2---2-2-2-0--22-0-2-0~--|
|-22-0-2---2-2-2-0---22-0-2---2-2-2-0---22-0-2---2-2-2-0--22-0-2-0~--|
     .     .     .      .     .     .      .     .     .     .


0:24-0:47
|-----------------------------------------------------------|
|-----------------------------------------------------------|
|-4-4444444-5555555--4-4444444-5555555--4-4444444-5555555---|
|-2-2222222-2222222--2-2222222-2222222--2-2222222-2222222---|
|-2-2222222-2222222--2-2222222-2222222--2-2222222-2222222---|
|-2------------------2------------------2-------------------|

--------------------------|
--------------------------|
--------------------------|
--------------------------|
--------------------------|
-5-5555555--2-222--8888---|

|-----------------------------------------------------------|
|-----------------------------------------------------------|
|-4-4444444-5555555--4-4444444-5555555--4-4444444-5555555---|
|-2-2222222-2222222--2-2222222-2222222--2-2222222-2222222---|
|-2-2222222-2222222--2-2222222-2222222--2-2222222-2222222---|
|-2------------------2------------------2-------------------|

--------------------------|
--------------------------|
--------------------------|
--------------------------|
--------------------------|
-5-5555555--2-222--8888---|


0:48-0:59
|--------------------------------------------------------------------|
|--------------------------------------------------------------------|
|-44--—4-----5-5-----44---4-----5-5-----44---4-----5-5----44---4-----|
|-22---2-----2-2-----22---2-----2-2-----22---2-----2-2----22---2-0~--|
|-22-0-2---2-2-2-0---22-0-2---2-2-2-0---22-0-2---2-2-2-0--22-0-2-0~--|
|-22-0-2---2-2-2-0---22-0-2---2-2-2-0---22-0-2---2-2-2-0--22-0-2-0~--|
     .     .     .      .     .     .      .     .     .     .


1:00-1:11
|-----------------------------------------------------------|
|-----------------------------------------------------------|
|-4-4444444-5555555--4-4444444-5555555--4-4444444-5555555---|
|-2-2222222-2222222--2-2222222-2222222--2-2222222-2222222---|
|-2-2222222-2222222--2-2222222-2222222--2-2222222-2222222---|
|-2------------------2------------------2-------------------|

--------------------------|
--------------------------|
--------------------------|
--------------------------|
--------------------------|
-5-5555555--2-222--8888---|


Guitar 1
1:12-1:35
|--------------------------------------------------------------|
|--------------------------------------------------------------|
|10-10-10-10-10-10--12-12-12-12-12-12--------------(5-5-5-5-5)-|
|-8--8--8--8--8--8--10-10-10-10-10-10--0-0-0-0-0-0--3-3-3-3-3--|
|-8--8--8--8--8--8--10-10-10-10-10-10--0-0-0-0-0-0--3-3-3-3-3--|
|-8--8--8--8--8--8--10-10-10-10-10-10--0-0-0-0-0-0--3-3-3-3-3--|

|--------------------------------------------------------------|
|--------------------------------------------------------------|
|10-10-10-10-10-10--12-12-12-12-12-12--------------(5-5-5-5-5)-|
|-8--8--8--8--8--8--10-10-10-10-10-10--0-0-0-0-0-0--3-3-3-3-3--|
|-8--8--8--8--8--8--10-10-10-10-10-10--0-0-0-0-0-0--3-3-3-3-3--|
|-8--8--8--8--8--8--10-10-10-10-10-10--0-0-0-0-0-0--3-3-3-3-3--|


Guitar 2 –
1:12-1:35
|-12-12-12-12-12-12-12-12-12-12-12-12---|
|---------------------------------------|
|---------------------------------------|
|---------------------------------------|
|---------------------------------------|
|---------------------------------------|

-15-15-15-15-15-15-15-15-15-15-15-15---|
---------------------------------------|
---------------------------------------|
---------------------------------------|
---------------------------------------|
---------------------------------------|

-14-14-14-14-14-14-14-14-14-14-14-14--|
--------------------------------------|
--------------------------------------|
--------------------------------------|
--------------------------------------|
--------------------------------------|

-10-10-10-10-10-10---12-12-12-12-12-12---|
-----------------------------------------|
-----------------------------------------|
-----------------------------------------|
-----------------------------------------|
-----------------------------------------|

|-12-12-12-12-12-12-12-12-12-12-12-12---|
|---------------------------------------|
|---------------------------------------|
|---------------------------------------|
|---------------------------------------|
|---------------------------------------|

-15-15-15-15-15-15-15-15-15-15-15-15---|
---------------------------------------|
---------------------------------------|
---------------------------------------|
---------------------------------------|
---------------------------------------|

-14-14-14-14-14-14-14-14-14-14-14-14--|
--------------------------------------|
--------------------------------------|
--------------------------------------|
--------------------------------------|
--------------------------------------|

-10-10-10-10-10-10---12-12-12-12-12-12---|
-----------------------------------------|
-----------------------------------------|
-----------------------------------------|
-----------------------------------------|
-----------------------------------------|


1:36-1:59
|-------------------------------------------------------------|
|-------------------------------------------------------------|
|-------------------------------------------------------------|
|-------------------------------------------------------------|
|-----------------------3-2p0---------------------------------|
|--2-2-00-2-2-00-2-2-2-2--------2-2-00-2-2-00-2-2-2-0000000---|
       ..     ..                    ..     ..       .......

|----------------------------------------------|
|----------------------------------------------|
|----------------------------------------------|
|----------------------------------------------|
|-----------------------3-2--3-----------------|
|-2-2-00-2-2-00-2-2-2-2--------3-3-3-3-3-3-3\--|
      ..     ..

|-------------------------------------------------------------|
|-------------------------------------------------------------|
|-------------------------------------------------------------|
|-------------------------------------------------------------|
|-----------------------3-2p0---------------------------------|
|--2-2-00-2-2-00-2-2-2-2--------2-2-00-2-2-00-2-2-2-0000000---|
       ..     ..                    ..     ..       .......

|----------------------------------------------|
|----------------------------------------------|
|----------------------------------------------|
|----------------------------------------------|
|-----------------------3-2--3-----------------|
|-2-2-00-2-2-00-2-2-2-2--------3-3-3-3-3-3-3\--|
      ..     ..

2:00-2:23
|-----------------------------------------------------------|
|-----------------------------------------------------------|
|-4-4444444-5555555--4-4444444-5555555--4-4444444-5555555---|
|-2-2222222-2222222--2-2222222-2222222--2-2222222-2222222---|
|-2-2222222-2222222--2-2222222-2222222--2-2222222-2222222---|
|-2------------------2------------------2-------------------|

--------------------------|
--------------------------|
--------------------------|
--------------------------|
--------------------------|
-5-5555555--2-222--8888---|

|-----------------------------------------------------------|
|-----------------------------------------------------------|
|-4-4444444-5555555--4-4444444-5555555--4-4444444-5555555---|
|-2-2222222-2222222--2-2222222-2222222--2-2222222-2222222---|
|-2-2222222-2222222--2-2222222-2222222--2-2222222-2222222---|
|-2------------------2------------------2-------------------|

--------------------------|
--------------------------|
--------------------------|
--------------------------|
--------------------------|
-5-5555555--2-222--8888---|

2:24-2:41
|------0---0------------------0---0-------------------|
|------0---0------------------0---0-------------------|
|------5---5------------------5---5-------------------|
|-------------0-0-0-0-0-0------------0-0-0-0-0-0-0-0--|
|---8----7----0-0-0-0-0-0--8----7----0-0-0-0-0-0-0-0--|
|---8----7----0-0-0-0-0-0--8----7----0-0-0-0-0-0-0-0--|


|------0---0------------------0---0-------------------|
|------0---0------------------0---0-------------------|
|------5---5------------------5---5-------------------|
|-------------0-0-0-0-0-0------------0-0-0-0-0-0-0-0--|
|---8----7----0-0-0-0-0-0--8----7----0-0-0-0-0-0-0-0--|
|---8----7----0-0-0-0-0-0--8----7----0-0-0-0-0-0-0-0--|


Guitar 1
2:42-3:25
|------------------------------------------------------------------|
|------------------------------------------------------------------|
|10-10-10-10-10-10--12-12-12-12-12-12------------------(5-5-5-5-5)-|
|-8--8--8--8--8--8--10-10-10-10-10-10--0-0-0-0-0-0-0-0--3-3-3-3-3--|
|-8--8--8--8--8--8--10-10-10-10-10-10--0-0-0-0-0-0-0-0--3-3-3-3-3--|
|-8--8--8--8--8--8--10-10-10-10-10-10--0-0-0-0-0-0-0-0--3-3-3-3-3--|

|------------------------------------------------------------------|
|------------------------------------------------------------------|
|10-10-10-10-10-10--12-12-12-12-12-12------------------(5-5-5-5-5)-|
|-8--8--8--8--8--8--10-10-10-10-10-10--0-0-0-0-0-0-0-0--3-3-3-3-3--|
|-8--8--8--8--8--8--10-10-10-10-10-10--0-0-0-0-0-0-0-0--3-3-3-3-3--|
|-8--8--8--8--8--8--10-10-10-10-10-10--0-0-0-0-0-0-0-0--3-3-3-3-3--|

|------------------------------------------------------------------|
|------------------------------------------------------------------|
|10-10-10-10-10-10--12-12-12-12-12-12------------------(5-5-5-5-5)-|
|-8--8--8--8--8--8--10-10-10-10-10-10--0-0-0-0-0-0-0-0--3-3-3-3-3--|
|-8--8--8--8--8--8--10-10-10-10-10-10--0-0-0-0-0-0-0-0--3-3-3-3-3--|
|-8--8--8--8--8--8--10-10-10-10-10-10--0-0-0-0-0-0-0-0--3-3-3-3-3--|

|----------------------------|
|----------------------------|
|-10-10-10-10-10-10---12~----|
|-8--8--8--8--8--8----10~----|
|-8--8--8--8--8--8----10~----|
|-8—-8-—8—-8—-8--8----10~----|


Guitar 2 – I’m not 100% sure on this part
2:42-3:25
|---12-12-12-12-12-12-12-12-12-12-12-12---|
|-----------------------------------------|
|-----------------------------------------|
|-----------------------------------------|
|-----------------------------------------|
|-----------------------------------------|

-15-15-15-15-15-15-15-15-15-15-15-15---|
---------------------------------------|
---------------------------------------|
---------------------------------------|
---------------------------------------|
---------------------------------------|

-14-14-14-14-14-14-14-14-14-14-14-14--|
--------------------------------------|
--------------------------------------|
--------------------------------------|
--------------------------------------|
--------------------------------------|

-10-10-10-10-10-10---12-12-12-12-12-12---|
-----------------------------------------|
-----------------------------------------|
-----------------------------------------|
-----------------------------------------|
-----------------------------------------|

|-12-12-12-12-12-12-12-12-12-12-12-12---|
|---------------------------------------|
|---------------------------------------|
|---------------------------------------|
|---------------------------------------|
|---------------------------------------|

-15-15-15-15-15-15-15-15-15-15-15-15---|
---------------------------------------|
---------------------------------------|
---------------------------------------|
---------------------------------------|
---------------------------------------|

-14-14-14-14-14-14-14-14-14-14-14-14--|
--------------------------------------|
--------------------------------------|
--------------------------------------|
--------------------------------------|
--------------------------------------|

-10-10-10-10-10-10---12-12-12-12-12-12---|
-----------------------------------------|
-----------------------------------------|
-----------------------------------------|
-----------------------------------------|
-----------------------------------------|

-17-17-17-17-17-17-17-17-17-17-17-17----|
----------------------------------------|
----------------------------------------|
----------------------------------------|
----------------------------------------|
----------------------------------------|

-18-18-18-18-18-18-18-18-18-18-18-18----|
----------------------------------------|
----------------------------------------|
----------------------------------------|
----------------------------------------|
----------------------------------------|

-14-14-14-14-14-14-14-14-14-14-14-14--|
--------------------------------------|
--------------------------------------|
--------------------------------------|
--------------------------------------|
--------------------------------------|

-10-10-10-10-10-10---12-12-12-12-12-12---|
-----------------------------------------|
-----------------------------------------|
-----------------------------------------|
-----------------------------------------|
-----------------------------------------|

-18-18-18-18-18-18-18-18-18-18-18-18—-15~--|
-------------------------------------------|
-------------------------------------------|
-------------------------------------------|
-------------------------------------------|
-------------------------------------------|

| /  slide up
| \  slide down
| h  hammer-on
| p  pull-off
| ~  vibrato
| +  harmonic
| x  Mute note
=======================================================================

            
            
Suggest correction
Creating personal tab
Creating personal tab
You can edit any tab online and save it as your Personal.

You can edit, replace or remove any tab part or add personal notes – all changes will be seen only by you.

Personal tabs can be accessed anytime from any device, even offline.
Learn more »
comments
print report bad tab
8 comments total. Showing first comments.
0 reply
mattmillar 61 Aug 03, 2009 07:14 PM

the intro for the sugar sickness should be this instead of whats up there...

|------------------------------------------------------|
|------------------------------------------------------|
|----7------------------------------7-----------77777--|
|----x---3/5------------------------x----3/5----55555--|
|-0--5---3/5-----8----8----8/10---0-5----3/5-----------| x5
|-0----0-3/5--00-8-00-8--0-8/10---0---0—-3/5-0---------|

0 reply
bassoreo 10 Aug 04, 2009 08:27 AM

im not too sure about the one riff in Creature. its probably right but just sounds like somethings off. (the one with the 5h7p5 or something.)

0 reply
mattmillar 61 Aug 04, 2009 05:06 PM

yeah, not everything on here is perfect, i tried to get it as close as i could so yeah its probly off.

guest
You may want to rate the tab now too:
select rating
Wanna post a correction for this tab? Suggest correction