Oops, an error
Loading. Please wait.

Aint It Fun Tab

16,257 views 51 this week
4 commentsread comments
1 2 3 4 5
x 5
add to favorites
launch autoscroll
font size
0
reset
how to read this tab
guitar tuner
×
Best way to learn
"Aint It Fun"
Autoscroll
slow
fast
+/-
esc
set tempo
stop
dead boys - ain't it fun

tuning: stadard

[Intro]
e|--------------------------------------------------------------------------|
B|--------------------------------------------------------------------------|
G|--------4-----------4-----------7-----------------------4-----------4--2--|(or---4-----)
D|-----4-----4-----4-----4-----7-----7--------7--------5-----5-----5--------|(--5-----7--)
A|--2-----------2-----------5--------------7-----7--------------------------|
E|--------------------------------------5-----------3-----------3-----------|
|
e|--------------------------------------------------------------------------|
B|--------------------------------------------------------------------------|
G|--------------------------------------------2---2-4----------------(4)-2--|
D|--------------------------------------2-h4--------------------------------|
A|--2----------------(2)-4--5-----------------------------------------------|
E|--------------------------------------------------------------------------|

e|--------------------------------------------------------------------------------------------------|
B|--------------------------------------------------------------------------------------------------|
G|--------4-----------4-----------4-----------4-----------7-----------------------4-----------4--2--|
D|-----4-----4-----4-----4-----4-----4-----4-----4-----7-----7--------7--------5-----5-----5--------|
A|--2-----------2-----------2-----------2-----------5--------------7-----7--------------------------|
E|--------------------------------------------------------------5-----------3-----------3-----------|
|
e|--------------------------------------------------------------------------------5-----------5--5--|
B|--------------------------------------------------------------3--5-----5-/7-----------------------|
G|--4-----------------------------------------------------4-----------------------------------------|
D|--------------------------------------------------------------------------------------------------|
A|--------------------------------------------------------------------------------------------------|
E|--------------------------------------------------------------------------------------------------|

e|--------------------------------------------------------------------------------------------------|
B|--------------------------------------------------------------------------------------------------|
G|--------4-----------4-----------4-----------4--2--------4-----------4-----------4-----------4--2--|
D|-----4-----4-----4----(4)----5-----5-----5-----------4-----4-----4-----4-----5-----5-----5--------|
A|--2-----------2-----------------------------------2-----------2-----------------------------------|
E|--------------------------3-----------3-----------------------------------3-----------3-----------|
|
e|--7-----------------------------7-----10-12----12b------------12b12---101210----------10----------|
B|-----------------------------------------------------------------------h-----------------12----10-|
G|--------------------------------------------------------------------------------------------------|
D|--------------------------------------------------------------------------------------------------|
A|--------------------------------------------------------------------------------------------------|
E|--------------------------------------------------------------------------------------------------|

e|--------------------------------------------------------------------------------------------------|
B|--------------------------------------------------------------------------------------------------|
G|--------4-----------4-----------7-----------------------------------4-----------7-----------------|
D|-----4-----4-----4-----4-----7-----7--------7-----------9--------5-----5-----7-----7--------7-----|
A|--2-----------2-----------5--------------7-----7-----9-----9--------------5--------------7-----7--|
E|--------------------------------------5-----------7-----------3-----------------------5-----------|
|
e|--------------------------------------------------------------------------------------------------|
B|--12----------------------------12----12-10-------------------------------------------------------|
G|--------------------------------------------11-9b-------9-----9-----------------------------------|
D|-----------------------------------------------------------12----12-------------9-----12-9--------|
A|-----------------------------------------------------------------------------------------------12-|
E|--------------------------------------------------------------------------------------------------|

e|--------------------------------------------------------------------------------------------------|
B|--------------------------------------------------------------------------------------------------|
G|-------(4)----------4-----------7--------------7-----------------------5--------7-----------------|
D|----(4)---(4)----4-----4-----7-----7--------7-----------9--------4--4--------7-----7--------7-----|
A|--2-----------2-----------5--------------7-----------9-----9--------------5--------------7----(7)-|
E|--------------------------------------5-----------7-----------3-----------------------5-----------|
|
e|--------------------------------------------------------------------------------------------------|
B|-----------------------------------------------------10-------------------------------------------|
G|-----------------------------------------9-----9b----------9b-r-----------------------------------|
D|--9-----------------------------9-----12-------------------------12-------------9-----12-9--------|
A|-----------------------------------------------------------------------------------------------12-|
E|--------------------------------------------------------------------------------------------------|

e|--------------------------|
B|--------------------------|
G|--------4-----------4-----|
D|-----4-----4-----4--------|
A|--2-----------2--------4--|
E|--------------------------|
|
e|--------------------------|
B|--------------------------|
G|--------------------------|
D|--9-----------------------|
A|--------------------------|
E|--------------------------|

e|--------------------------------------------------------------------------|
B|--------------------------------------------------------------------------|
G|--------4-----------4-----------7-----------------------4-----------4--2--|
D|-----4-----4-----4----(4)----7-----7--------7--------5-----5--5--5--------|
A|--2-----------2-----------5--------------7-----7--------------------------|
E|--------------------------------------5-----------3-----------------------|
|       intro end
e|---------|
B|---------|
G|---------|
D|--9---\--|
A|---------|
E|---------|

 he plays that riff with a few variations, i try to find them out
e|--------------------------------------------------------------------------------------------------|
B|--------------------------------------------------------------------------------------------------|
G|--------4-----------4-----------4-----------4-----------7-----------------------4-----------4--2--|
D|-----4-----4-----4-----4-----4-----4-----4-----4-----7-----7--------7--------5-----5-----5--------|
A|--2-----------2-----------2-----------2-----------5--------------7----(7)-------------------------|
E|--------------------------------------------------------------5-----------3-----------3-----------|

e|--------------------------------------------------------------------------------------------------|
B|--------------------------------------------------------------------------------------------------|
G|--------4-----------4-----------4-----------4--2--------4-----------4-----------4-----------4--2--|
D|-----4-----4-----4----(4)----5-----5-----5-----------4-----4-----4----(4)----5-----5-----5--------|
A|--2-----------2-----------------------------------2-----------2-----------------------------------|
E|--------------------------3-----------3-----------------------------------3-----------3-----------|

e|--------------------------------------------------------------------------------------------------|
B|--------------------------------------------------------------------------------------------------|
G|--------4-----------4-----------7--------------7-----------------------4--------7--------------7--|
D|-----4-----4-----4-----4-----7-----7--------7-----------9--7-----5--5--------7-----7--------7-----|
A|--2-----------2-----------5--------------7-----------9--------------------5--------------7--------|
E|--------------------------------------5-----------7-----------3-----------------------5-----------|

e|------------------------------------------------|
B|------------------------------------------------|
G|------------------------------------------------|
D|--9--9--9--9--9--9--9--9--9--9--9--9--9--9--9\--|
A|--9--9--9--9--9--9--9--9--9--9--9--9--9--9--9\--|
E|--7--7--7--7--7--7--7--7--7--7--7--7--7--7--7\--|
[pm________________________________________]

e|--------------------------------------------------------------------------------------------------|
B|--------------------------------------------------------------------------------------------------|
G|--------------------------------------------------------------------------------------------------|
D|--5--------5--------5-----7--------7--------7-----9--9--7--9-----7--9--7--9--9--7--9-----7--9--7--|
A|--5--------5--------5-----7--------7--------7-----9--9--7--9-----7--9--7--9--9--7--9-----7--9--7--|
E|--3--------3--------3-----5--------5--------5-----7--7--5--7-----5--7--5--7--7--5--7-----5--7--5--|
|
e|--------------------------------------------------------------------------------------------------|
B|--------------------------------------------------------------------------------------------------|
G|--------------------------------------------------12b---------------------14b---------------14b---|
D|--------------------------------------------------------14-12-------------------12b---------------|
A|--------------------------------------------------------------------------------------------------|
E|--------------------------------------------------------------------------------------------------|

e|--------------------------------------------------------------------------------------------------|
B|--------------------------------------------------------------------------------------------------|
G|--------------------------------------------------------------------------------------------------|
D|--5--------5--------5-----7--------7--------7-----9--9--7--9-----7--9--7--9--9--7--9-----7--9--7--|
A|--5--------5--------5-----7--------7--------7-----9--9--7--9-----7--9--7--9--9--7--9-----7--9--7--|
E|--3--------3--------3-----5--------5--------5-----7--7--5--7-----5--7--5--7--7--5--7-----5--7--5--|
|
e|--------------------------------------------------------------------------------------------------|
B|--------------------------------------------------------------------------------------------------|
G|-(14b)--------------------------------------------14----------------------------------------------|
D|-----------------------------------------------------------12-------12-14-14b14-12----------------|
A|----------------------------------------------------12141214-----14-------------------------------|
E|-----------------------------------------------------h---h----------------------------------------|

e|--------------------------------------------------|
B|--------------------------------------------------|
G|--------------------------------------------------|
D|--5--------5--------5-----7--------7--------7-----|
A|--5--------5--------5-----7--------7--------7-----|
E|--3--------3--------3-----5--------5--------5-----|
|
e|--------------------------------------------------|
B|--------------------------------------------------|
G|--------------------------------------------------|
D|--16-----*feedback*-------------------------------|
A|--------------------------------------------------|
E|--------------------------------------------------|

 so at this time, you have 3 guitars... one guitar just for one tone. because this solo 
 recorded after the rest.
e|--------------------------------------------------------------------------|
B|--------------------------------------------------------------------------|
G|--------4-----------4-----------7-----------------------4-----------4--2--|
D|-----4-----4-----4-----4-----7-----7--------7--------5-----5-----5--------|
A|--2-----------2-----------5--------------7-----7--------------------------|
E|--------------------------------------5-----------3-----------3-----------|
|
e|--------------------------------------------------------------------------|
B|--------------------------------------------------------------------------|
G|--------------------------------------------2---2-4----------------(4)-2--|
D|--------------------------------------2-h4--------------------------------|
A|--2----------------(2)-4--5-----------------------------------------------|
E|--------------------------------------------------------------------------|
(3rd guitar: d-string; 16 slide down. you can play it instead of a-string; 2)

e|--------------------------------------------------------------------------------------------------|
B|--------------------------------------------------------------------------------------------------|
G|--------4-----------4-----------4-----------4-----------7--------------7--------4-----------4--2--|
D|-----4-----4-----4-----4-----4-----4-----4-----4-----7-----7--------7--------5-----5-----5--------|
A|--2-----------2-----------2-----------2-----------5--------------7--------------------------------|
E|--------------------------------------------------------------5-----------3-----------3-----------|
|
e|--------------------------------------------------------------------------------------------------|
B|--------------------------------------------------------------------------------------------------|
G|--4-------------------\---------------------------------------------------------------------------|
D|--------------------------------------------------------------------------------------12-14----14b|
A|--------------------------------------------------------------------------------14----------------|
E|--------------------------------------------------------------------------------------------------|

e|--------------------------------------------------------------------------------------------------|
B|--------------------------------------------------------------------------------------------------|
G|--------4-----------4-----------4-----------4-----------7-----------------------4-----------4--2--|
D|-----4-----4-----4-----4-----4-----4-----4-----4-----7-----7--------7--------5-----5-----5--------|
A|--2-----------2-----------2-----------2-----------5--------------7-----7--------------------------|
E|--------------------------------------------------------------5-----------3-----------3-----------|
|
e|--------------------------------------------------------------------------------------------------|
B|--------------------------------------------------------------------------------------------------|
G|--------------------------------------------------------------------------------------14-16----14-|
D|-------------------------------------------------------------------------------/16----------------|
A|--------------------------------------------------------------------------------------------------|
E|--------------------------------------------------------------------------------------------------|

e|--------------------------------------------------------------------------------------------------|
B|--------------------------------------------------------------------------------------------------|
G|--------4-----------4-----------4-----------4--2--------4-----------4-----------4-----------4--2--|
D|-----4-----4-----4----(4)----5-----5-----5-----------4-----4-----4----(4)----5-----5-----5--------|
A|--2-----------2-----------------------------------2-----------2-----------------------------------|
E|--------------------------3-----------3-----------------------------------3-----------3-----------|
|
e|--------------------------------------------------------------------------------------------------|
B|--------------------------------------------------------------------------------------------------|
G|--16----------------------------------------------------------------------------------------------|
D|--------------------------------------------------------------------------------------------------|
A|--------------------------------------------------------------------------------------------------|
E|--------------------------------------------------------------------------------------------------|

e|--------------------------------------------------------------------------------------------------|
B|--------------------------------------------------------------------------------------------------|
G|--------4-----------4-----------7--------------7-----------------------4--------7--------------7--|
D|-----4-----4-----4-----4-----7-----7--------7-----------9--7-----5--5--------7-----7--------7-----|
A|--2-----------2-----------5--------------7-----------9--------------------5--------------7--------|
E|--------------------------------------5-----------7-----------3-----------------------5-----------|
|
e|--------------------------------------------------------------------------------------------------|
B|--------------------------------------------------------------------------------------------------|
G|--------16----16-14-------------------------------------------------------------------------------|
D|--------------------16-14b------------------------------------------------------------------------|
A|--------------------------------------------------------------------------------------------------|
E|--------------------------------------------------------------------------------------------------|

e|--------------------------------------------------|
B|--------------------------------------------------|
G|--------------------------------------------------|
D|--9--9--9--9--9--9--9--9--9--9--9--9--9--9--9--9--|
A|--9--9--9--9--9--9--9--9--9--9--9--9--9--9--9--9--|
E|--7--7--7--7--7--7--7--7--7--7--7--7--7--7--7--7--|
[pm________________________________________________]

e|--------------------------------------------------------------------------------------------------|
B|--------------------------------------------------------------------------------------------------|
G|--------------------------------------------------------------------------------------------------|
D|--5--5--5--5--5--5--5--5--7--7--7--7--7--7--7--7--12-12-12-12-12-12-12-12-9--9--9--9--9--9--9--9--|
A|--5--5--5--5--5--5--5--5--7--7--7--7--7--7--7--7--12-12-12-12-12-12-12-12-9--9--9--9--9--9--9--9--|
E|--3--3--3--3--3--3--3--3--5--5--5--5--5--5--5--5--10-10-10-10-10-10-10-10-7--7--7--7--7--7--7--7--|
[pm________________________________________________________________________________________________]

e|--------------------------------------------------------------------------------------------------|
B|--------------------------------------------------------------------------------------------------|
G|--------------------------------------------------------------------------------------------------|
D|--5--5--5--5--5--5--5--5--7--7--7--7--7--7--7--7--12-12-12-12-12-12-12-12-9--9--9--9--9--9--9--9--|
A|--5--5--5--5--5--5--5--5--7--7--7--7--7--7--7--7--12-12-12-12-12-12-12-12-9--9--9--9--9--9--9--9--|
E|--3--3--3--3--3--3--3--3--5--5--5--5--5--5--5--5--10-10-10-10-10-10-10-10-7--7--7--7--7--7--7--7--|
[pm________________________________________________________________________________________________]

e|--------------------------------------------------------------------------------------------------|
B|--------------------------------------------------------------------------------------------------|
G|--------------------------------------------------------------------------------------------------|
D|--5--5--5--5--5--5--5--5--7--7--7--7--7--7--7--7--9--9--7--9-----7--9--7--9--9--7--9-----7--9--7--|
A|--5--5--5--5--5--5--5--5--7--7--7--7--7--7--7--7--9--9--7--9-----7--9--7--9--9--7--9-----7--9--7--|
E|--3--3--3--3--3--3--3--3--5--5--5--5--5--5--5--5--7--7--5--7-----5--7--5--7--7--5--7-----5--7--5--|
|[pm_______________________________________________________________________________________________]
|
e|--------------------------------------------------------------------------------------------------|
B|--------------------------------------------------------------------------------------------------|
G|--16-------16-------16----16-------16-------16----16-------16-------16----16-------16-------16----|
D|-----------------19b---19b---------------19b---19b---------------19b---19b---------------19b---19b|
A|--------------------------------------------------------------------------------------------------|
E|--------------------------------------------------------------------------------------------------|
(you can play only 16 on the g-string, but that's not the right sound)

e|--------------------------------------------------------------------------------------------------|
B|--------------------------------------------------------------------------------------------------|
G|--------------------------------------------------------------------------------------------------|
D|--5--------5--------5-----7--------7--------7-----9--9--7--9-----7--9--7--9--9--7--9-----7--9--7--|
A|--5--------5--------5-----7--------7--------7-----9--9--7--9-----7--9--7--9--9--7--9-----7--9--7--|
E|--3--------3--------3-----5--------5--------5-----7--7--5--7-----5--7--5--7--7--5--7-----5--7--5--|
|
e|--------------------------------------------------------------------------------------------------|
B|--------------------------------------------------------------------------------------------------|
G|--16----------------------16----------------------16-p--------------------------------------------|
D|---------------------------------------------------1412p--h12-------12141214brp12--12-------12----|
A|-----------------------------------------------------14121214----14-------------14----------------|
E|--------------------------------------------------------------------------------------------------|

e|--------------------------------------------------------------------------------------------------|
B|--------------------------------------------------------------------------------------------------|
G|--------------------------------------------------------------------------------------------------|
D|--5--------5--------5-----7--------7--------7-----9--9--7--9-----7--9--7--9--9--7--9-----7--9--7--|
A|--5--------5--------5-----7--------7--------7-----9--9--7--9-----7--9--7--9--9--7--9-----7--9--7--|
E|--3--------3--------3-----5--------5--------5-----7--7--5--7-----5--7--5--7--7--5--7-----5--7--5--|
|
e|--------------------------------------------------------------------------------------------------|
B|--------------------------------------------------------------------------------------------------|
G|-----------------------------------------14------------------------------------------br----br-----|
D|--16-------16-------14-12-16-------16-------16----14b14-121412----------h-12----12141412141412-12-|
A|--^--------^--------------^--------^---------------------h-------14--h-1214--14--------------14---|
E|--|--------|--------------|--------|--------------------------------1214--------------------------|
(he plays actually 14h16, but you hardly hear the 14)(the last 12 should be at the 
at 7, but i hadn't enough space)

e|--------------------------------------------------|
B|--------------------------------------------------|
G|--------------------------------------------------|
D|--5--------5--------5-----7--------7--------7-----|
A|--5--------5--------5-----7--------7--------7-----|
E|--3--------3--------3-----5--------5--------5-----|
|
e|--------------------------------------------------|
B|--------------------------------------------------|
G|--------------------------------------------------|
D|---12------14br-p12----------------14br-p12-------|
A|1214----14----------14--------12h14---------14-12-|
E|--h-----------------------12h14-------------------|

e|--------------------------------------------------------------------------|
B|--------------------------------------------------------------------------|
G|--------4-----------4-----------7-----------------------4-----------4--2--|
D|-----4-----4-----4-----4-----7-----7--------7--------5-----5-----5--------|
A|--2-----------2-----------5--------------7-----7--------------------------|
E|--------------------------------------5-----------3-----------3-----------|
|
e|--------------------------------------------------------------------------|
B|--------------------------------------------------------------------3--5--|
G|--------------------------------------------2---2-4---------------4-------|
D|--------------------------------------2-h4--------------------------------|
A|--2----------------(2)-4--5-----------------------------------------------|
E|--------------------------------------------------------------------------|
(again this "3rd guitar"... plays 14 on a-string. play it instead of 2 on a-string)

e|--------------------------------------------------------------------------------------------------|
B|--------------------------------------------------------------------------------------------------|
G|--------4-----------4-----------4-----------4-----------7--------------7--------4-----------4--2--|
D|-----4-----4-----4-----4-----4-----4-----4-----4-----7-----7--------7--------5-----5-----5--------|
A|--2-----------2-----------2-----------2-----------5--------------7--------------------------------|
E|--------------------------------------------------------------5-----------3-----------3-----------|
|
e|--------------------------------------------------------------------------------------------------|
B|--5b----------------------------5b----5b-------5b-5b-5--3--5--3--2--3--2--------------3-----------|
G|--------------------------------------------------------------------------4--------------4-----2--|
D|--------------------------------------------------------------------------------------------------|
A|--------------------------------------------------------------------------------------------------|
E|--------------------------------------------------------------------------------------------------|

e|--------------------------------------------------------------------------------------------------|
B|--------------------------------------------------------------------------------------------------|
G|--------4-----------4-----------4-----------4-----------7-----------------------4-----------4--2--|
D|-----4-----4-----4-----4-----4-----4-----4-----4-----7-----7--------7--------5-----5-----5--------|
A|--2-----------2-----------2-----------2-----------5--------------7-----7--------------------------|
E|--------------------------------------------------------------5-----------3-----------3-----------|
|
e|--------------------------------------------------------------------------------------------------|
B|--------------------------------------------------------------------------------------3-----------|
G|--4-----------------------4--\--------------------------------------------------4--------4-----2--|
D|--------------------------------------------------------------------------------------------------|
A|--------------------------------------------------------------------------------------------------|
E|--------------------------------------------------------------------------------------------------|

e|--------------------------------------------------------------------------------------------------|
B|--------------------------------------------------------------------------------------------------|
G|--------4-----------4-----------4-----------4-----------7-----------------------4-----------4--2--|
D|-----4-----4-----4-----4-----4-----4-----4-----4-----7-----7--------7--------5-----5-----5--------|
A|--2-----------2-----------2-----------2-----------5--------------7-----7--------------------------|
E|--------------------------------------------------------------5-----------3-----------3-----------|
|
e|--------------------------------------------------------------------------------------------------|
B|-----------------------------------------------------------------------------------------17----15-|
G|--4-----------------------------------------------------------------------------------14----------|
D|-------------------------------------------------------------------------------/16----------------|
A|--------------------------------------------------------------------------------------------------|
E|--------------------------------------------------------------------------------------------------|

e|--------------------------------------------------------------------------------------------------|
B|--------------------------------------------------------------------------------------------------|
G|--------4-----------4-----------4-----------4--2--------4-----------4-----------4-----------4--2--|
D|-----4-----4-----4----(4)----5-----5-----5-----------4-----4-----4----(4)----5-----5-----5--------|
A|--2-----------2-----------------------------------2-----------2-----------------------------------|
E|--------------------------3-----------3-----------------------------------3-----------3-----------|
|
e|--------------------------------------------------------------------------------------------------|
B|--------15----------------------------------------------------------------------------------------|
G|-----18----18-16----------------------------------------------------------------16----16-14-------|
D|--------------------------------------------------------------------------------------------16-14b|
A|--------------------------------------------------------------------------------------------------|
E|--------------------------------------------------------------------------------------------------|

e|--------------------------------------------------------------------------------------------------|
B|--------------------------------------------------------------------------------------------------|
G|--------4-----------4-----------7-----------------------------------4-----------7-----------------|
D|-----4-----4-----4-----4-----7-----7--------7-----------9--------5-----5-----7-----7--------7-----|
A|--2-----------2-----------5--------------7-----7-----9-----9--------------5--------------7-----7--|
E|--------------------------------------5-----------7-----------3-----------------------5-----------|
|
e|--------------------------------------------------------------------------------------------------|
B|--------------------------------------------------------------------------------------------------|
G|--------------------------------9b----9--7--------------------7-----------------7-----7-----------|
D|--------------------------------------------------------9--------9------------------------9----7--|
A|--------------------------------------------------------------------------------------------------|
E|--------------------------------------------------------------------------------------------------|

e|--------------------------------------------------|
B|--------------------------------------------------|
G|--------------------------------------------------|
D|--9--9--9--9--9--9--9--9--9--9--9--9--9--9--9--9--|
A|--9--9--9--9--9--9--9--9--9--9--9--9--9--9--9--9--|
E|--7--7--7--7--7--7--7--7--7--7--7--7--7--7--7--7--|
|[pm_______________________________________________]
|
e|--------------------------------------------------|
B|--------------------------------------------------|
G|--------------------------------------------------|
D|--9-----------------------------------------------|
A|--------------------------------------------------|
E|--------------------------------------------------|

e|--------------------------------------------------------------------------------------------------|
B|--------------------------------------------------------------------------------------------------|
G|--------------------------------------------------------------------------------------------------|
D|--5--5--5--5--5--5--5--5--7--7--7--7--7--7--7--7--9--9--7--9-----7--9--7--9--9--7--9-----7--9--7--|
A|--5--5--5--5--5--5--5--5--7--7--7--7--7--7--7--7--9--9--7--9-----7--9--7--9--9--7--9-----7--9--7--|
E|--3--3--3--3--3--3--3--3--5--5--5--5--5--5--5--5--7--7--5--7-----5--7--5--7--7--5--7-----5--7--5--|
|[pm_______________________________________________________________________________________________]
|
e|--------------------------------------------------------------------------------------------------|
B|--------------------------------------------------------------------------------------------------|
G|--16----16-16----16-16-16-16----16-16----16-16-16-16----16-16----16-16-16-16----16-16----16-16-16-|
D|--------------------------------------------------------------------------------------------------|
A|--------------------------------------------------------------------------------------------------|
E|--------------------------------------------------------------------------------------------------|
4 times!

e|--------------------------------------------------------------------------------------------------|
B|--------------------------------------------------------------------------------------------------|
G|--------------------------------------------------------------------------------------------------|
D|--5--5--5--5--5--5--5--5--7--7--7--7--7--7--7--7--9--9--7--9-----7--9--7--9--9--7--9-----7--9--7--|
A|--5--5--5--5--5--5--5--5--7--7--7--7--7--7--7--7--9--9--7--9-----7--9--7--9--9--7--9-----7--9--7--|
E|--3--3--3--3--3--3--3--3--5--5--5--5--5--5--5--5--7--7--5--7-----5--7--5--7--7--5--7-----5--7--5--|
|[pm_______________________________________________________________________________________________]
|
e|--------------------------------------------------------------------------------------------------|
B|--------------------------------------------------------------------------------------------------|
G|--16(16)---------------11-16(16)---------------11-16(16)------------------------------------------|
D|--------14-12-------1214--------14-12-------1214--------14-12------121412-14brp12--12-------12----|
A|-----------------14---h------------------14---h------------------14--h----------14-------14-------|
E|--------------------------------------------------------------------------------------------------|


e|----------------------------------------------------------------|
B|----------------------------------------------------------------|
G|----------------------------------------------------------------|
D|--5--5--5--5--5--5--5--5--7--7--7--7--7--7--7--7--9-------------|
A|--5--5--5--5--5--5--5--5--7--7--7--7--7--7--7--7--9-------------|
E|--3--3--3--3--3--3--3--3--5--5--5--5--5--5--5--5--7-------------|
|[pm_____________________________________________]
|
e|----------------------------------------------------------------|
B|----------------------------------------------------------------|
G|--16(16)--------------------------------------------------------|
D|--------14-12-------12----14b------14b------14b---14b-----------|
A|-----------------14---------------------------------------------|
E|----------------------------------------------------------------|

yeah, that's it!

 ok, you can play
e|-------------|
B|--------4----|
G|-----5----5--|
D|-------------|
A|--3----------|
E|-------------|
instead of
e|--------------|    |--------------|
B|--------------|    |--------------|
G|--------4--2--|    |-----------4--|
D|-----5--------|    |-----5--5-----|
A|--------------|    |--------------|
E|--3-----------| or |--3-----------|


************************************

| (n)  Ghost note
| h    Hammer-on
| /    Slide up
| b    Bend
| r    Release
| \    Slide down
| p    Pull-off
| br   Bend release

************************************
Suggest correction
comments
print report bad tab
4 comments total. Showing first comments.
0 reply
Myxamatosis 20 Jan 24, 2011 12:41 AM

hey dude nice tab but i'm pretty sure its tuned a half step down

+1 reply
spuddhel 141 Jan 24, 2011 07:45 AM

no, the dead boys' version is in standard tuning (and this is the dead boys' version's tab), if you're looking for the GNR-version, you will need to tune down.

0 reply
Jiro77 10 Oct 17, 2011 09:09 AM

wow increible! good tab!

guest
You may want to rate the tab now too:
select rating
Wanna post a correction for this tab? Suggest correction