Oops, an error
Loading. Please wait.

Aint Nothing To Do Tab

2,686 views 6 this week
no commentswrite comment
1 2 3 4 5
2 more votes to show rating
add to favorites
launch autoscroll
font size
0
reset
how to read this tab
guitar tuner
Autoscroll
slow
fast
+/-
esc
set tempo
stop
Help us to improve Ultimate-Guitar.com Take our survey!
×
Author
-------------------------------------------------------------------------------
			     AIN'T NOTHING TO DO - Dead Boys
-------------------------------------------------------------------------------
Tabbed by: Michel de Bruyn
Email: miesisback@hotmail.com

Tuning: Standard


Guitar 1

     E    E    E E
E-----------------------------------------|
B-----------------------------------------|
G----9----9----9-9------------------------|
D----9----9----9-9------------------------| x 4
A----7----7----7-7------------------------|
E-----------------------------------------|

Guitar 2
 
                    (palm muted)
		    E E E E E E E
E----------------------------------------|
B----------------------------------------|
G----------------------------------------|
D-------------------2-2-2-2-2-2-2--------| x 4
A-------------------2-2-2-2-2-2-2--------|
E-------------------0-0-0-0-0-0-0--------|

  E E E E E E E E E E E E C C C C   C C C C C C C 
E----------------------------------------------------|
B----------------------------------------------------|
G-9-9-9-9-9-9-9-9-9-9-9-9-5-5-5-5---5-5-5-5-5-5-5----|
D-9-9-9-9-9-9-9-9-9-9-9-9-5-5-5-5---5-5-5-5-5-5-5----| x 2
A-7-7-7-7-7-7-7-7-7-7-7-7-3-3-3-3-0-3-3-3-3-3-3-3----|
E----------------------------------------------------|
 I'm so sick of T.V.	You know, I'm getting bored of the tube
 I'm so sick of romance And I'm gettin' real sick of you
 
 
  A A            C C C D D D E E E E E E E E E E
E--------------------------------------------------|
B--------------------------------------------------|
G-2-2------------5-5-5-7-7-7-9-9-9-9-9-9-9-9-9-9---|
D-2-2-----5------5-5-5-7-7-7-9-9-9-9-9-9-9-9-9-9---| x  2
A-0-0-3-4---3p0--3-3-3-5-5-5-7-7-7-7-7-7-7-7-7-7---|
E--------------------------------------------------|
I wanna get on out of here Find me somethin' to do
Yeah, get on outta here Just aint nothin' to do

Guitar 1

     E    E    E E
E-----------------------------------------|
B-----------------------------------------|
G----9----9----9-9------------------------|
D----9----9----9-9------------------------| x 3
A----7----7----7-7------------------------|
E-----------------------------------------|
Listen..
Guitar 2
                    (palm muted)
		    E E E E E E E
E----------------------------------------|
B----------------------------------------|
G----------------------------------------|
D-------------------2-2-2-2-2-2-2--------| x 3
A-------------------2-2-2-2-2-2-2--------|
E-------------------0-0-0-0-0-0-0--------|    

  E E E E E E E E E E E E C C C C   C C C C C C C
E----------------------------------------------------|
B----------------------------------------------------|
G-9-9-9-9-9-9-9-9-9-9-9-9-5-5-5-5---5-5-5-5-5-5-5----|
D-9-9-9-9-9-9-9-9-9-9-9-9-5-5-5-5---5-5-5-5-5-5-5----| x 2
A-7-7-7-7-7-7-7-7-7-7-7-7-3-3-3-3-0-3-3-3-3-3-3-3----|
E----------------------------------------------------|
 I'm so sick of FM        I don't play my stereo too
Just wanna........ fights Just aint nothin' to do


  A A            C C C D D D E E E E E E E E E E
E--------------------------------------------------|
B--------------------------------------------------|
G-2-2------------5-5-5-7-7-7-9-9-9-9-9-9-9-9-9-9---|
D-2-2-----5------5-5-5-7-7-7-9-9-9-9-9-9-9-9-9-9---| x  2
A-0-0-3-4---3p0--3-3-3-5-5-5-7-7-7-7-7-7-7-7-7-7---|
E--------------------------------------------------|
I wanna get on out of here Find me somethin' to do
Yeah, get on outta here Just aint nothin' to do

  B B B B B E F  E E E E E C C C C C C C  G G G G G G G G G D D D D D D D   
E-------------------------------------------------------------------------|
B-------------------------------------------------------------------------|
G-----------9/10\9-9-9-9-9----------------12-12-12-12-12-12---------------|
D/9-9-9-9-9-9/10\9-9-9-9-9-10-10-10-10-10-12-12-12-12-12-12-12-12-12-12-12|x2
A/9-9-9-9-9-7/-8\7-7-7-7-7-10-10-10-10-10-10-10-10-10-10-10-12-12-12-12-12|
E/7-7-7-7-7----------------8--8--8--8--8--------------------10-10-10-10-10|
			  There aint nothin' to do
Gonna beat up the next hippie I see   Maybe I'll be beatin' up you

Guitar 1

     E    E    E E
E-----------------------------------------|
B-----------------------------------------|
G----9----9----9-9------------------------|
D----9----9----9-9------------------------| x 4
A----7----7----7-7------------------------|
E-----------------------------------------|
Look out baby 
Guitar 2
 
                    (palm muted)
		    E E E E E E E
E----------------------------------------|
B----------------------------------------|
G----------------------------------------|
D-------------------2-2-2-2-2-2-2--------| x 4
A-------------------2-2-2-2-2-2-2--------|
E-------------------0-0-0-0-0-0-0--------|

  		   here I comes
Solo

During solo: 
E E E E E E E E E E E E C C C C   C C C C C C C
E----------------------------------------------------|
B----------------------------------------------------|
G-9-9-9-9-9-9-9-9-9-9-9-9-5-5-5-5---5-5-5-5-5-5-5----|
D-9-9-9-9-9-9-9-9-9-9-9-9-5-5-5-5---5-5-5-5-5-5-5----| x 2
A-7-7-7-7-7-7-7-7-7-7-7-7-3-3-3-3-0-3-3-3-3-3-3-3----|
E----------------------------------------------------|
 Yeah, Punch out

  A A            C C C D D D E E E E E E E E E E
E--------------------------------------------------|
B--------------------------------------------------|
G-2-2------------5-5-5-7-7-7-9-9-9-9-9-9-9-9-9-9---|
D-2-2-----5------5-5-5-7-7-7-9-9-9-9-9-9-9-9-9-9---| x  2
A-0-0-3-4---3p0--3-3-3-5-5-5-7-7-7-7-7-7-7-7-7-7---|
E--------------------------------------------------|
			Ain't nothing to do
			Ain't nothing to do
  B B B B B E F  E E E E E C C C C C C C  G G G G G G G G G D D D D D D D   
E-------------------------------------------------------------------------|
B-------------------------------------------------------------------------|
G-----------9/10\9-9-9-9-9----------------12-12-12-12-12-12---------------|
D/9-9-9-9-9-9/10\9-9-9-9-9-10-10-10-10-10-12-12-12-12-12-12-12-12-12-12-12|x2
A/9-9-9-9-9-7/-8\7-7-7-7-7-10-10-10-10-10-10-10-10-10-10-10-12-12-12-12-12|
E/7-7-7-7-7----------------8--8--8--8--8--------------------10-10-10-10-10|
		There aint nothin' to do
I'm gonna knock down the next old man I see Maybe I'll be knockin' down you

Guitar 1

     E    E    E E
E-----------------------------------------|
B-----------------------------------------|
G----9----9----9-9------------------------|
D----9----9----9-9------------------------| x 4
A----7----7----7-7------------------------|
E-----------------------------------------|
   Ain't Nothing to do x3
   Ain't nothing to..
Guitar 2
 
                    (palm muted)
		    E E E E E E E
E----------------------------------------|
B----------------------------------------|
G----------------------------------------|
D-------------------2-2-2-2-2-2-2--------| x 4
A-------------------2-2-2-2-2-2-2--------|
E-------------------0-0-0-0-0-0-0--------|



Outro
    c c c  D D D  E E E E E E
E-----------------------------------------|
B-----------------------------------------|
G---5-5-5--7-7-7--9-9-9-9-9-9-------------|
D---5-5-5--7-7-7--9-9-9-9-9-9-------------| x 4
A---3-3-3--5-5-5--7-7-7-7-7-7-------------|
E-----------------------------------------|
                  To do!
end

Enjoy!


| /  slide up
| \  slide down
| h  hammer-on
| p  pull-off
| ~  vibrato
| +  harmonic
| x  Mute note
===============================================================================
Suggest correction
Give kudos to tab author, rate the tab!
1 2 3 4 5
comments
print report bad tab
guest
You may want to rate the tab now too:
select rating
Wanna post a correction for this tab? Suggest correction