Oops, an error
Loading. Please wait.

Sonic Reducer Tab

version 1
version 1

Whole song

Interactive

11,622 views 24 this week
5 commentsread comments
1 2 3 4 5
accurate
x 6
add to favorites
launch autoscroll
font size
0
reset
how to read this tab
guitar tuner
Autoscroll
slow
fast
+/-
esc
set tempo
stop
Help us to improve Ultimate-Guitar.com Take our survey!
×
I got learned this from a really low-quality live recording, which is cool for 
but not so much playing by ear. So please excuse any possible mistakes.


Intro/verse
It's strummed really fast, but it's pretty simple.During the intro part, I like to palm 
it, but that just might be me.
E-------------------------------------------------------|
B-------------------------------------------------------|
G-666666------------------------------------------------|
D-666666666666777777444444------------------------------|
A-444444666666777777444444------------------------------|
E-------444444555555222222------------------------------|


Chorus(listen for strum pattern)
E-------------------------------------------------------|
B-------------------------------------------------------|
G-444-666-222-444---------------------------------------|
D-444-666-222-444---------------------------------------|
A-222-444-000-222---------------------------------------|
E-------------------------------------------------------|

That's about it. You have to listen for when the changes come, but that should be pretty 
Sorry I couldn't figure out the solo, once again, really crappy live recording.

R.I.P STIV BATORS!
Suggest correction
comments
print report bad tab
5 comments total. Showing first comments.
0 reply
ilovegerardway 10 wrote on January 3 2006, 06:36 pm

not quite...3

0 reply
Derek <3's You! 10 wrote on January 30 2006, 07:38 pm

Close but no cigar!

0 reply
Guitarpunk919 20 wrote on April 18 2006, 11:46 pm

good stuff.
i know this tab might have been submitted a while ago, but i just heard this song played by, Saves the Day on Tony hawk, and it sounds great.

e|--------------------------------------|
B|--------------------------------------|
G|--/9999-8888-666-4~-/9999-8888-666-4~-|

e|--------------------------------------------------------|
B|--------------------------------------------------------|
G|-4444-2222-111-2~-/444\222/666\444/888\666/999/11-11-11-|

e|-9--9--9--13-13-13-14-14-14-16~-------|
B|10-10-19--14-14-14-15-15-15-17~-------|
G|--------------------------------------|

e|----------------------------------------|
B|--15----15-----15----15-----------------|
G|----17^----17^---17^----17--------------|

^^^Thats all i got up to about 1:58 in the song i have.
i know, its really wrong, but it is just something to start off with.
just to get the idea.

guest
You may want to rate the tab now too:
select rating
Please do not post tabs as comments. Select "correction" instead!