Oops, an error
Loading. Please wait.

Survivor Theme Acoustic tab

version 1
version 1

Whole song

Interactive

8,213 views 51 this week
5 commentsread comments
1 2 3 4 5
1 last vote to show rating
add to favorites
×
Save as Personal and add changes to this tab that will be seen only by you. Learn more ›
×
You can save this tab as Personal to edit and correct it or add notes. All changes will be seen only by you. Learn more »
launch autoscroll
font size
0
reset
how to read this tab
guitar tuner
edit
Autoscroll
slow
fast
+/-
esc
set tempo
stop
Author
Difficulty
Dead by Daylight Survivor theme in standard tuning for one guitar. Transposed from Bb-standard tuning.

e||--------------------|--------------------|--------------------|--------------------|
B||--------------------|--------------------|--------------------|--------------------|
G||----------0---------|----------0---------|--------------------|--------------------|
D||2----2----2----2----|4----4----4----2----|2----2----2----2----|2----2----2----2----|
A||2----2----2----2----|2----2----2----2----|2----2----2----2----|2----2----2----2----|
E||0----0----0----0----|0----0----0----0----|0----0----0----0----|0----0----0----0----|
   >     

e|--------------------|--------------------|--------------------|--------------------|
B|--------------------|--------------------|--------------------|--------------------|
G|----------0---------|----------0---------|--------------------|--------------------|
D|2----2----2----2----|4----4----4----2----|2----2----2----2----|2----2----2----2----|
A|2----2----2----2----|2----2----2----2----|2----2----2----2----|2----2----2----2----|
E|0----0----0----0----|0----0----0----0----|0----0----0----0----|0----0----0----0----| 
  >

e|--------------------|--------------------|--------------------|--------------------|
B|--------------------|--------------------|--------------------|--------------------|
G|----------0---------|----------0---------|--------------------|--------------------|
D|5----5----5----5----|4----4----5----4----|4----4----4----4----|4----4----4----4----|
A|5----5----5----5----|3----5----5----5----|5----5----5----5----|5----5----5----5----|
E|3----3----3----3----|3----3----3----3----|3----3----3----3----|3----3----3----3----|
  >

e|--------------------|--------------------|--------------------|--------------------||
B|--------------------|--------------------|--------------------|--------------------||
G|----------0---------|----------0---------|--------------------|--------------------|| Repeat from the
D|4----4----5----5----|4----4----5----4----|4----4----4----4----|4----4----4----4----||    beginning
A|5----5----5----5----|3----5----5----5----|4----4----4----4----|4----4----4----4----||
E|3----3----3----3----|3----3----3----3----|2----2----2----2----|2----2----2----2----||
  >                                         >    >    >    >     >    >    >    >



************************************

| >   Accented note

************************************
Suggest correction
Creating personal tab
Creating personal tab
You can edit any tab online and save it as your Personal.

You can edit, replace or remove any tab part or add personal notes – all changes will be seen only by you.

Personal tabs can be accessed anytime from any device, even offline.
Learn more »
Give kudos to tab author, rate the tab!
1 2 3 4 5
comments
print report bad tab
5 comments total. Showing first comments.
0 reply
kaasujalka08 12 Jul 26, 2016 06:38 AM

DON'T TUNE YOUR GUITAR FOR THE ORIGINAL VERSION! IT BREAKS THE STRINGS OF THE GUITAR! I also got an enormously long cut on my finger, horrible instructions.
Very, very bad tab, unless you fix that.

0 reply
The_SG 10 Aug 21, 2016 09:42 PM

Can you use this tab for Bb tuning? Or is there another tab for that...

guest
You may want to rate the tab now too:
select rating
Wanna post a correction for this tab? Suggest correction