Oops, an error
Loading. Please wait.

Condemned Tab

version 2
version 2

Whole song

Interactive

222 views 1 this week
no commentswrite comment
1 2 3 4 5
please rate
add to favorites
launch autoscroll
font size
0
reset
how to read this tab
guitar tuner
Autoscroll
slow
fast
+/-
esc
set tempo
stop
Help us to improve Ultimate-Guitar.com Take our survey!
×
Author
Difficulty
advanced
Dead By Sunrise - Condemned

Full Guitar Tab with Lead and Rhythm Guitar and Guitar Solo



Now is it 100 % right

 p   = pull-off             x   = dead note (left hand)
 h   = hammer-on            *   = palm mute (right hand)
 t   = tap-on               X\  = pick slide
 ~   = vibrato              hm  = harmonic
 /   = slide up             ah  = artificial harmonic
 \   = slide down           ( ) = ghost note
 ^   = bend                 tr  = trill
 ^r  = bend and release     tm  = trem picking

Tuning: Standard

 Intro
e|---------------------------------------------------------------------------|
B|---------------------------------------------------------------------------|
G|---------------------------------------------------------------------------|
D|-9-9-9-9--8-8--3-3-3-3--7-7---9-9-9-9--8-8--3-3-3-3--7-7-------------------|
A|-9-9-9-9--8-8--3-3-3-3--7-7---9-9-9-9--8-8--3-3-3-3--7-7-------------------|
E|-7-7-7-7--6-6--1-1-1-1--5-5---7-7-7-7--6-6--1-1-1-1--5-5-------------------|

 Verse 1 (palm-muted play it 4 Times)
e|---------------------------------------------------------------------------|
B|---------------------------------------------------------------------------|
G|---------------------------------------------------------------------------|
D|---------------------------------------------------------------------------|
A|-9-9-9-9-9-8-8-6-3-3-3-3-3-3-3-3-------------------------------------------|
E|-7-7-7-7-7-6-6-4-1-1-1-1-1-1-1-1-------------------------------------------|

 Chorus
e|---------------------------------------------------------------------------|
B|---------------------------------------------------------------------------|
G|---------------------------------------------------------------------------|
D|-2-9-6-10-----2-9-6-3------------------------------------------------------|
A|-2-9-6-10-----2-9-6-3------------------------------------------------------|
E|-0-7-4--8-----0-7-4-1------------------------------------------------------|


 Verse 2 (palm-muted play it 2 Times)
e|---------------------------------------------------------------------------|
B|---------------------------------------------------------------------------|
G|---------------------------------------------------------------------------|
D|---------------------------------------------------------------------------|
A|-9-9-9-9-9-8-8-6-3-3-3-3-3-3-3-3-------------------------------------------|
E|-7-7-7-7-7-6-6-4-1-1-1-1-1-1-1-1-------------------------------------------|

 (play it not palm-muted 4 Times)
e|---------------------------------------------------------------------------|
B|---------------------------------------------------------------------------|
G|---------------------------------------------------------------------------|
D|---------------------------------------------------------------------------|
A|-9-9-9-9-9-8-8-6-3-3-3-3-3-3-3-3-------------------------------------------|
E|-7-7-7-7-7-6-6-4-1-1-1-1-1-1-1-1-------------------------------------------|


 Chorus
e|---------------------------------------------------------------------------|
B|---------------------------------------------------------------------------|
G|---------------------------------------------------------------------------|
D|-2-9-6-10-----2-9-6-3------------------------------------------------------|
A|-2-9-6-10-----2-9-6-3------------------------------------------------------|
E|-0-7-4--8-----0-7-4-1------------------------------------------------------|

 Guitar Solo

 Lead Guitar :

(1:15)(Pre-solo)
e|---------------------------------------------------------------------------|
B|---------------------------------------------------------------------------|
G|-4-4-4-4-4-4-4-4-/-4-4-4-4-4-4-4-4-----------------------------------------|
D|---------------------------------------------------------------------------|
A|---------------------------------------------------------------------------|
E|---------------------------------------------------------------------------|

(1:18)(Solo)
e|---------------------------------------------------------------------------|
B|-10^-10^--------------10^-10^----------------------------------------------|
G|---------------------------------------------------------------------------|
D|---------------------------------------------------------------------------|
A|---------------------------------------------------------------------------|
E|---------------------------------------------------------------------------|

(1:21)
e|-------7-11-7-7------------------------------------------------------------|
B|-7-10-----------10-7-------------------------------------------------------|
G|---------------------10-9-7-10-10-9-7-9--7~--------------------------------|
D|---------------------------------------------------------------------------|
A|---------------------------------------------------------------------------|
E|---------------------------------------------------------------------------|

(1:24)
e|---------------------------------------------------------------------------|
B|---------------------------------------------------------------------------|
G|-----------7^-------(7)^--9-7^--9-7~---------------------------------------|
D|-------7-9-----------------------------------------------------------------|
A|-7*-9*---------------------------------------------------------------------|
E|---------------------------------------------------------------------------|

(1:28)
e|---------------------------------------------------------------------------|
B|-7-------7-------7-------7-------------------------------------------------|
G|---9-7-----9-7-----9-7-----9-7----7^----(7)^-------------------------------|
D|-------9-------9-------9-------9-------------------------------------------|
A|---------------------------------------------------------------------------|
E|---------------------------------------------------------------------------|

(1:31) (play it 6 Times)
e|---------------------------------------------------------------------------|
B|-/-5-5-5-5-5-5-5-5--5-5-5-5-5-5-5-5----------------------------------------|
G|---------------------------------------------------------------------------|
D|---------------------------------------------------------------------------|
A|---------------------------------------------------------------------------|
E|---------------------------------------------------------------------------|

 (and then play this)
e|--------------------0------------------------------------------------------|
B|-/-5-5-5-5-5-5-5-5--5------------------------------------------------------|
G|---------------------------------------------------------------------------|
D|---------------------------------------------------------------------------|
A|---------------------------------------------------------------------------|
E|---------------------------------------------------------------------------|

 Rhythm Guitar :

 Pre-solo (rhythm)
e|---------------------------------------------------------------------------|
B|---------------------------------------------------------------------------|
G|---------------------------------------------------------------------------|
D|-3-3-3-3-3-3-3-3-----------------------------------------------------------|
A|-3-3-3-3-3-3-3-3-----------------------------------------------------------|
E|-1-1-1-1-1-1-1-1-----------------------------------------------------------|

 Solo(rhythm)
e|---------------------------------------------------------------------------|
B|---------------------------------------------------------------------------|
G|---------------------------------------------------------------------------|
D|-9-9-9-9--8-8--3-3-3-3--7-7------------------------------------------------|
A|-9-9-9-9--8-8--3-3-3-3--7-7------------------------------------------------|
E|-7-7-7-7--6-6--1-1-1-1--5-5------------------------------------------------|

 After-solo bridge (rhythm) play it 3 Times
e|---------------------------------------------------------------------------|
B|---------------------------------------------------------------------------|
G|---------------------------------------------------------------------------|
D|-8-8-8-8-9-9-9-9-12-12-12-13-13-13-14-\------------------------------------|
A|-8-8-8-8-9-9-9-9-12-12-12-13-13-13-14-\------------------------------------|
E|-6-6-6-6-7-7-7-7-10-10-10-11-11-11-12-\------------------------------------|

 (and then play this)
e|---------------------------------------------------------------------------|
B|---------------------------------------------------------------------------|
G|---------------------------------------------------------------------------|
D|-8-8-8-8-9-9-9-9-12-12-12-12-12-12-12--------------------------------------|
A|-8-8-8-8-9-9-9-9-12-12-12-12-12-12-12--------------------------------------|
E|-6-6-6-6-7-7-7-7-10-10-10-10-10-10-10--------------------------------------|

 Verse 3 (palm-muted play it 2 Times)
e|---------------------------------------------------------------------------|
B|---------------------------------------------------------------------------|
G|---------------------------------------------------------------------------|
D|---------------------------------------------------------------------------|
A|-9-9-9-9-9-8-8-6-3-3-3-3-3-3-3-3-------------------------------------------|
E|-7-7-7-7-7-6-6-4-1-1-1-1-1-1-1-1-------------------------------------------|

 (play it not palm-muted 2 Times)
e|---------------------------------------------------------------------------|
B|---------------------------------------------------------------------------|
G|---------------------------------------------------------------------------|
D|---------------------------------------------------------------------------|
A|-9-9-9-9-9-8-8-6-3-3-3-3-3-3-3-3-------------------------------------------|
E|-7-7-7-7-7-6-6-4-1-1-1-1-1-1-1-1-------------------------------------------|

 Chorus
e|---------------------------------------------------------------------------|
B|---------------------------------------------------------------------------|
G|---------------------------------------------------------------------------|
D|-2-9-6-10-----2-9-6-3------------------------------------------------------|
A|-2-9-6-10-----2-9-6-3------------------------------------------------------|
E|-0-7-4--8-----0-7-4-1------------------------------------------------------|


 Pre-outro-solo
e|---------------------------------------------------------------------------|
B|---------------------------------------------------------------------------|
G|---------------------------------------------------------------------------|
D|-3-3-3-3-3-3-3-3-----------------------------------------------------------|
A|-3-3-3-3-3-3-3-3-----------------------------------------------------------|
E|-1-1-1-1-1-1-1-1-----------------------------------------------------------|


 Outro Solo

 Lead Guitar :

e|---------------------------------------------------------------------------|
B|----12----12----12---------------------------------------------------------|
G|-9^----9^----9^----9^-9^--(9)^--9^-7-9-7^--7-------------------------------|
D|---------------------------------------------------------------------------|
A|---------------------------------------------------------------------------|
E|---------------------------------------------------------------------------|


e|------10^--12^--14^~--17^--17^-(17^)---------------------------------------|
B|-10^--13---15---17--------------------17-15--------------------------------|
G|--------------------------------------------14~----------------------------|
D|---------------------------------------------------------------------------|
A|---------------------------------------------------------------------------|
E|---------------------------------------------------------------------------|


 Rhythm Guitar :

e|---------------------------------------------------------------------------|
B|---------------------------------------------------------------------------|
G|---------------------------------------------------------------------------|
D|-9-9-9-9--8-8--3-3-3-3--7-7------------------------------------------------|
A|-9-9-9-9--8-8--3-3-3-3--7-7------------------------------------------------|
E|-7-7-7-7--6-6--1-1-1-1--5-5------------------------------------------------|


End of the song

tabbed by SimonGuitarist
Suggest correction
What's this?
You can suggest a correction to this tab. Community and Mods will review your correction and vote to approve or reject it.
comments
We did not receive enough feedback on this tab! Please rate:
print report bad tab
1 2 3 4 5
guest
You may want to rate the tab now too:
select rating
Please do not post tabs as comments. Select "correction" instead!