Oops, an error
Loading. Please wait.

Crawl Back In Bass Tab

version 1
version 1

Whole song

Interactive

3,812 views 1 this week
no commentswrite comment
1 2 3 4 5
1 last vote to show rating
add to favorites
launch autoscroll
font size
0
reset
guitar tuner
Autoscroll
slow
fast
+/-
esc
set tempo
stop
Help us to improve Ultimate-Guitar.com Take our survey!
×
Author
Difficulty
novice
First Tab not spot on but i tired this is all based off wat i heard and the guitar tabs 
ya :)

Intro
After Guitar 2X
--------------------------------------------|
--------------------------------------------|
--3-3-3-3-----------------------------------|X2
----------0-0-0-0-5-5-4-3-3-3-3-3-----------|

Verse
--------------------------------------------|
--------------------------------------------|
--3-3-3-3-----------------------------------|X4
----------0-0-0-0-5-5-4-3-3-3-3-3-----------|

Chorus
--------------------------------------------|
--------------------------------------------|
--------------------------------------------|
--5555555555555555-8888888888888888---------|

Post Chorus
--------------------------------------------|
--------------------------------------------|
--3-3-3-3-----------------------------------|X2
----------0-0-0-0-5-5-4-3-3-3-3-3-----------|

Verse
--------------------------------------------|
--------------------------------------------|
--3-3-3-3-----------------------------------|X8
----------0-0-0-0-5-5-4-3-3-3-3-3-----------|

Chorus
--------------------------------------------|
--------------------------------------------|
--------------------------------------------|X2
--5555555555555555-8888888888888888---------|

-----------------------------------|
-----------------------------------|
-----------------------------------|
--10101010101010101010101010101010-|

--------------------------------------------|
--------------------------------------------|
--------------------------------------------|
--5555555555555555-8888888888888888---------|

-----------------------------------|
-----------------------------------|
-----------------------------------|
--10101010101010101010101010101010-|

During solo
--------------------------------------------|
--------------------------------------------|
--3-3-3-3-----------------------------------|X8
----------0-0-0-0-5-5-4-3-3-3-3-3-----------|

Chorus
--------------------------------------------|
--------------------------------------------|
--------------------------------------------|X2
--5555555555555555-8888888888888888---------|

-----------------------------------|
-----------------------------------|
-----------------------------------|
--10101010101010101010101010101010-|

--------------------------------------------|
--------------------------------------------|
--------------------------------------------|
--5555555555555555-8888888888888888---------|

-----------------------------------|
-----------------------------------|
-----------------------------------|
--10101010101010101010101010101010-|

Outro
--------------------------------------------|
--------------------------------------------|
--3-3-3-3-----------------------------------|X2
----------0-0-0-0-5-5-4-3-3-3-3-3-----------|
Suggest correction
Give kudos to tab author, rate the tab!
1 2 3 4 5
comments
print report bad tab
guest
You may want to rate the tab now too:
select rating
Wanna post a correction for this tab? Suggest correction