Oops, an error
Loading. Please wait.

Crawl Back In Bass Tab

version 2
version 2

Whole song

Interactive

130 views 1 this week
no commentswrite comment
1 2 3 4 5
please rate
add to favorites
launch autoscroll
font size
0
reset
guitar tuner
Tab Pro tools
  • play this tab
  • loop segment
  • change instrument
  • show fretboard
  • metronome
×
Best way to learn
"Crawl Back In"
Autoscroll
slow
fast
+/-
esc
set tempo
stop
Contributor
Difficulty
novice
Dead By Sunrise – Crawl Back In
Bass Tab (tabbed by Ronny Schouten, RonnyENTJ on Ultimate-Guitar.com)

Intro, Verse 1
  C C C C E E E E A A G#G G G G G
G--------------------------------------------|
D--------------------------------------------|
A--3-3-3-3-----------------------------------|
E----------0-0-0-0-5-5-4-3-3-3-3-3-----------| x6

Chorus
      A-------------->C-------------->
G-----------------------------------------------------------|
D-----------------------------------------------------------|
A------0-0-0-0-0-0-0-0-3-3-3-3-3-3-3-3----------------------|
E-----------------------------------------------------------|
I don't wanna be like|them


Post Chorus 1, Verse 2:
  C C C C E-E-E-E-A-A-G#G-G-G-G-G
G--------------------------------------------|
D--------------------------------------------|
A--3-3-3-3-----------------------------------|
E----------0-0-0-0-5-5-4-3-3-3-3-3-----------| x10

Chorus 2 – every chord is 2 whole notes (2x4counts)
  A-------------->C-------------->A-------------->
G---------------------------------------------------------|
D---------------------------------------------------------|
A--0-0-0-0-0-0-0-0-3-3-3-3-3-3-3-3-0-0-0-0-0-0-0-0--------|
E---------------------------------------------------------|

  C-------------->D------------->
G---------------------------------------------------------|
D---------------------------------------------------------|
A--3-3-3-3-3-3-3-3-5-5-5-5-5-5-5-5------------------------|
E---------------------------------------------------------|

  A-------------->C-------------->D-------------->
G---------------------------------------------------------|
D---------------------------------------------------------|
A--0-0-0-0-0-0-0-0-3-3-3-3-3-3-3-3-5-5-5-5-5-5-5-5--------|
E---------------------------------------------------------|

Solo
  C C C C E-E-E-E-A-A-G#G-G-G-G-G
G--------------------------------------------|
D--------------------------------------------|
A--3-3-3-3-----------------------------------|
E----------0-0-0-0-5-5-4-3-3-3-3-3-----------| x4

Verse 3
  C C C C E-E-E-E-A-A-G#G-G-G-G-G
G--------------------------------------------|
D--------------------------------------------|
A--3-3-3-3-----------------------------------|
E----------0-0-0-0-5-5-4-3-3-3-3-3-----------| x4

Chorus 3 – every chord is 2 whole notes (2x4counts)
  A-------------->C-------------->A-------------->
G---------------------------------------------------------|
D---------------------------------------------------------|
A--0-0-0-0-0-0-0-0-3-3-3-3-3-3-3-3-0-0-0-0-0-0-0-0--------|
E---------------------------------------------------------|

  C-------------->D------------->
G---------------------------------------------------------|
D---------------------------------------------------------|
A--3-3-3-3-3-3-3-3-5-5-5-5-5-5-5-5------------------------|
E---------------------------------------------------------|

  A-------------->C-------------->D-------------->
G---------------------------------------------------------|
D---------------------------------------------------------|
A--0-0-0-0-0-0-0-0-3-3-3-3-3-3-3-3-5-5-5-5-5-5-5-5--------|
E---------------------------------------------------------|

Outro
  C C C C E-E-E-E-A-A-G#G-G-G-G-G
G--------------------------------------------|
D--------------------------------------------|
A--3-3-3-3-----------------------------------|
E----------0-0-0-0-5-5-4-3-3-3-3-3-----------| x4
comments
We did not receive enough feedback on this tab! Please rate:
print report bad tab
1 2 3 4 5
I want to post or [tab]
guest
You may want to rate the tab now too:
select rating
Please do not post tabs as comments. Select "correction" instead!