Oops, an error
Loading. Please wait.

Inside Of Me Tab

version 2
version 2

Whole song

Interactive

5,701 views 1 this week
1 commentread comment
1 2 3 4 5
2 more votes to show rating
add to favorites
launch autoscroll
font size
0
reset
how to read this tab
guitar tuner
Autoscroll
slow
fast
+/-
esc
set tempo
stop
Help us to improve Ultimate-Guitar.com Take our survey!
×
Author
Difficulty
Tuning
novice
D A D G B E
-------------------------------------------------------------------------------
                             Inside of Me - Dead by Sunrise
-------------------------------------------------------------------------------
Tabbed by:Entru
Email:yarde@mail.ru or yardeisme@gmail.com

Not sure about lead guitar over 2nd verse,and i haven't tabbed solo yet,so feel 
free to correct me.

Tuning:Dropped D
 Verse riff:
e|----------------------------------------------------------------------------|
B|----------------------------------------------------------------------------|
G|----------------------------------------------------------------------------|
D|-2-2-5/7------------2-2-5/7------------2-2-5/7------------2-2-5-0-0-0-0-0-0-|
A|-2-2-5/7------------2-2-5/7------------2-2-5/7------------2-2-5-0-0-0-0-0-0-|
D|-2-2-5/7-7-7-7-7-7--2-2-5/7-7-7-7-7-7--2-2-5/7-7-7-7-7-7--2-2-5-0-0-0-0-0-0-|
  (Palm mute single 7s while slightly keeping your finger on 7th fret,like when you're
harmonic)

 Pre-chorus:
e|-----------------------------------------------------------------------------------|
B|-----------------------------------------------------------------------------------|
G|-----------------------------------------------------------------------------------|
D|-5-5-5-3-3-3-3-3-3--5-5-5-3-3-3-3-3-3--5-5-5-3-3-3-3-3-3--5-5-5-3-3-3-3-3-3--5-5-5-|
A|-5-5-5-3-3-3-3-3-3--5-5-5-3-3-3-3-3-3--5-5-5-3-3-3-3-3-3--5-5-5-3-3-3-3-3-3--5-5-5-|
D|-5-5-5-3-3-3-3-3-3--5-5-5-3-3-3-3-3-3--5-5-5-3-3-3-3-3-3--5-5-5-3-3-3-3-3-3--5-5-5-|

 Chorus:
e|----------------------------------------------------------------------------------|
B|----------------------------------------------------------------------------------|
G|----------------------------------------------------------------------------------|
D|-0-0-0-0-0-7-7-7-7-7-3-3-3-3-3-5-5-5-5-5--0-0-0-0-0-7-7-7-7-7-3-3-3-3-3-3-3-3-3-3-|
A|-0-0-0-0-0-7-7-7-7-7-3-3-3-3-3-5-5-5-5-5--0-0-0-0-0-7-7-7-7-7-3-3-3-3-3-3-3-3-3-3-|
D|-0-0-0-0-0-7-7-7-7-7-3-3-3-3-3-5-5-5-5-5--0-0-0-0-0-7-7-7-7-7-3-3-3-3-3-3-3-3-3-3-|

 Lead guitar over 2nd verse(not sure):
e|------0--0------0--0-----------0--0------0--0-------0--0--0--0--0------------|
B|------x--x------x--x-----------x--x------x--x-------x--x--x--x--x------------|
G|-9-9-10-10-9-9-10-10-9-9--9-9-10-10-9-9-10-10-9-9--12-12-12-12-12------------|
D|-----------------------------------------------------------------------------|
A|-----------------------------------------------------------------------------|
D|-----------------------------------------------------------------------------|

 Then play chorus again,solo,and last chorus.I think i will update tab when i'll find 
solo and rhythm guitar during solo.
 Enjoy,rate and comment.


| /  slide up
| \  slide down
| h  hammer-on
| p  pull-off
| ~  vibrato
| +  harmonic
| x  Mute note
===============================================================================
Suggest correction
Give kudos to tab author, rate the tab!
1 2 3 4 5
comments
print report bad tab
1 comment total.
0 reply
Linkin_LP_Park 10 Nov 17, 2009 07:46 PM

Chorus:
e|----------------------------------------------------------------------------------|
B|----------------------------------------------------------------------------------|
G|----------------------------------------------------------------------------------|
D|-0-0-0-0-0-8-8-8-8-8-3-3-3-3-3-5-5-5-5-5--0-0-0-0-0-8-8-8-8-8-3-3-3-3-3-3-3-3-3-3-|
A|-0-0-0-0-0-8-8-8-8-8-3-3-3-3-3-5-5-5-5-5--0-0-0-0-0-8-8-8-8-8-3-3-3-3-3-3-3-3-3-3-|
D|-0-0-0-0-0-8-8-8-8-8-3-3-3-3-3-5-5-5-5-5--0-0-0-0-0-8-8-8-8-8-3-3-3-3-3-3-3-3-3-3-|

That's what i got for the chorus. AWESOME SONG AS WELL!!!!@!!

guest
You may want to rate the tab now too:
select rating
Wanna post a correction for this tab? Suggest correction