Oops, an error
Loading. Please wait.

Too Late Tab

version 1
version 1

Whole song

Interactive

Video

5,741 views 1 this week
1 commentread comment
1 2 3 4 5
excellent!
x 4
add to favorites
launch autoscroll
font size
0
reset
how to read this tab
guitar tuner
Autoscroll
slow
fast
+/-
esc
set tempo
stop
Help us to improve Ultimate-Guitar.com Take our survey!
×
Author
------------------------------------

     Dead By Sunrise - Too Late

------------------------------------


Tabbed by: Shreddaboi12

Email: holden_monaro12@hotmail.com

Hey guys, this is my second ever tab that I've done. The first was Linkin Parks New Divide. 
Those who like Linkin Park will know that this is Chester's side project 'Dead By Sunrise'. 
I love listening to this song and decided I should put it into a tab for you guys :)
Hope you enjoy it!

When you see a part that has lead and rhythm, I've tabbed the lead and the rhythm 
will be underneath it.

Tab Legend:
h = hammer on
p = pull off
s = slide
* = pinch harmonic
. = palm mute
~ = let ring
b = half bend
pb = pre bend
br = bend release
x = muted note, or whatever you want to call it (dead, ghost etc)
[] = natural harmonic

Tuning:
(Lead) Guitar I: Standard (E A D G B E)
(Rhythm) Guitar II: Standard (E A D G B E)

INTRO

GTR I x2
|-------------------------------------------------------------------------|
|-------------------------------------------------------------------------|
|-------------------------------------------------------------------------|
|--7-7-7-7-7-7-5-5-7-7-7-7---7-5-5-7-7-7-7-7-7-5-5-7-7-7-7---7-5-5--------|
|-------------------------------------------------------------------------|
|-------------------------------------------------------------------------|
   . . . . . . . . . . . .   . . . . . . . . . . . . . . .   . . .


VERSE I
If you listen closely, you'll hear Guitar I playing the intro in the background during 
the verse, so turn the guitar down when playing it.

GTR I x7                            GTR I x1
|----------------------------------|--------------------------------------|
|----------------------------------|--------------------------------------|
|----------------------------------|---pb7--------------------------------|
|--7-7-7-7-7-7-5-5-7-7-7-7---7-5-5-|--------------------------------------|
|----------------------------------|--------------------------------------|
|----------------------------------|--------------------------------------|
   . . . . . . . . . . . .   . . . 

GTR II x2
|-------------------------------------------------------------------------|
|-----------------------------------------------------1---1-------3---3---|
|--------9~----------9~---------0-------------9~--------0-----------0-----|
|-----7-----------7-----------4---4---------7-----------------------------|
|-------------------------------------------------------------------------|
|--5-----------8------------3------------5----------1-----------3---------|


CHORUS
Listen to it for the timing for Guitar I.
Where I have indicated on Guitar II, stop on the second time.

GTR I x2                           GTR I x1
|---------------------------------|---------------------------------------|
|-----10-----13-----12--10~-------|------15------17------15--13~----------|
|--9------9------9----------------|--14------14------14-------------------|
|---------------------------------|---------------------------------------|
|---------------------------------|---------------------------------------|
|---------------------------------|---------------------------------------|

GTR II
|-------------------------------------------------------------------|
|-------------------------------------------------------------------|
|-------------------------------------------------------------------|
|-3-3-3-3-3-3-3-3-5-5-5-5-5-5-5-5-7-7-7-7-7-7-7-7-1010101010101010--|
|-3-3-3-3-3-3-3-3-5-5-5-5-5-5-5-5-7-7-7-7-7-7-7-7-1010101010101010--|----|
|-1-1-1-1-1-1-1-1-3-3-3-3-3-3-3-3-5-5-5-5-5-5-5-5-8-8-8-8-8-8-8-8---|    |
                                                                      repeat
|---------------------------------|---------------------------------| twice
|---------------------------------|---------------------------------|    |
|---------------------------------|---------------------------------|----|
|-3-3-3-3-3-3-3-3-5-5-5-5-5-5-5-5-|-7-7-7-7-7-7-7-7-7-7-7-7-7-7-7-7-|
|-3-3-3-3-3-3-3-3-5-5-5-5-5-5-5-5-|-7-7-7-7-7-7-7-7-7-7-7-7-7-7-7-7-|
|-1-1-1-1-1-1-1-1-3-3-3-3-3-3-3-3-|-5-5-5-5-5-5-5-5-5-5-5-5-5-5-5-5-|


Then Guitar I, repeat the intro ONCE.


VERSE II
Repeat the whole of verse I. Its exactly the same, although they do add a little synth 
over the top of it.


SECOND CHORUS
Once again, repeat the whole of the first chorus, and stop on the second time 
where I've indicated.


SOLO
An interesting solo, they're all natural harmonics!

GTR I 
|-------------[7]---------------------------------------[7]---[12]--------|
|--[7]--------------[7]----[12]--------[7]-----------[7]---[7]------------|
|-----[7]-[5]----[5]----[7]---------------[7]-[5]-[7]---------------------|
|-------------------------------------------------------------------------|
|-------------------------------------------------------------------------|
|-------------------------------------------------------------------------|

|-----------------------------------------------------------[12]----------|
|--[7]-----------[7]-------[12]--------[7]----------[12]-[7]--------------|
|-----[7]-[5]-[7]---[5]-[7]---------------[7]-[5]-------------------------|
|------------------------------------------------[7]----------------------|
|-------------------------------------------------------------------------|
|-------------------------------------------------------------------------|

GTR II x2
|----------------------------------------------------------|
|----------------------------------------------------------|
|----------------------------------------------------------|
|--7-7---9-9---10-10--12-12----7-7---9-9---10-10---5-5-----|
|--7-7---9-9---10-10--12-12----7-7---9-9---10-10---5-5-----|
|--5-5---7-7---8--8---10-10----5-5---7-7---8--8----3-3-----|


THIRD CHORUS
Once again, its exactly the same as the first two, so repeat the chorus and end 
where I've indicated.


Then theres a slightly alternated chorus/outro straight after the third chorus.


OUTRO
Instead of the usual Guitar I, the last chorus/outro has a synth playing over it, but I've 
translated it into guitar for you to play :)

GTR I x3                               GTR I x1
|--------------------------------------|----------------------------------|
|----10-8----10-12----10---13---12-10~-|-----10-8-----10-12-10~-----------|
|--9-------9--------9----9----9--------|---9--------9---------------------|
|--------------------------------------|----------------------------------|
|--------------------------------------|----------------------------------|
|--------------------------------------|----------------------------------|

GTR II
|-------------------------------------------------------------------|
|-------------------------------------------------------------------|
|-------------------------------------------------------------------|
|-3-3-3-3-3-3-3-3-5-5-5-5-5-5-5-5-7-7-7-7-7-7-7-7-1010101010101010--|
|-3-3-3-3-3-3-3-3-5-5-5-5-5-5-5-5-7-7-7-7-7-7-7-7-1010101010101010--|----|
|-1-1-1-1-1-1-1-1-3-3-3-3-3-3-3-3-5-5-5-5-5-5-5-5-8-8-8-8-8-8-8-8---|    |
                                                                      repeat
|-------------------------------------------------------------------| twice
|-------------------------------------------------------------------|    |
|-------------------------------------------------------------------|----|
|-3-3-3-3-3-3-3-3-5-5-5-5-5-5-5-5-(7)-7-7-7-7-7-7-7-7-7-7-7-7-7-7-7-|
|-3-3-3-3-3-3-3-3-5-5-5-5-5-5-5-5-(7)-7-7-7-7-7-7-7-7-7-7-7-7-7-7-7-|
|-1-1-1-1-1-1-1-1-3-3-3-3-3-3-3-3-(5)-5-5-5-5-5-5-5-5-5-5-5-5-5-5-5-|

Make sure you play this another two times straight after the third chorus. The 
only difference 
is, on the last time you play it, end on the power chord I've indicated in 
brackets. If you want you 
can do a little whammy dive on the last chord to finish the song if you want to 
make it sound similar
to it :)

Then as the final chord plays, Guitar I plays the intro riff once more and fades 
out with the chord.

Enjoy my tab!
Suggest correction
What's this?
You can suggest a correction to this tab. Community and Mods will review your correction and vote to approve or reject it.
comments
print report bad tab
1 comment total.
0 reply
kenvy 1,653 wrote on November 9 2009, 08:56 pm

|-------------------------------------------------------------------------|
|-------------------------------------------------------------------------|
|-------------------------------------------------------------------------|
|--7-7-7-7-7-7-5-5-7-7-7-7h9---7-5-5-7-7-7-7-7-7-5-5-7-7-7-7h9---7-5-5--------|
|-------------------------------------------------------------------------|
|-------------------------------------------------------------------------|
. . . . . . . . . . . . . . . . . . . . . . . . . . . . . .

guest
You may want to rate the tab now too:
select rating
Please do not post tabs as comments. Select "correction" instead!