Oops, an error
Loading. Please wait.

American Dreaming tab

8,704 views 9 this week
1 commentread comment
1 2 3 4 5
x 5
add to favorites
×
Save as Personal and add changes to this tab that will be seen only by you. Learn more ›
×
You can save this tab as Personal to edit and correct it or add notes. All changes will be seen only by you. Learn more »
launch autoscroll
font size
0
reset
how to read this tab
guitar tuner
edit
Autoscroll
slow
fast
+/-
esc
set tempo
stop
Author
Difficulty
-------------------------------------------------------------------------------
                             American Dreaming – Dead can Dance
-------------------------------------------------------------------------------
Tabbed by: deadcandancefan
Email: civilwolf1@yahoo.com


Hopefully this works for everyone.


Tuning: Standard

Chords
e|---0----|   e|---0---|   e|---0---|   e|---0---|   e|---3---|   e|---2---|
B|---1----|   B|---0---|   B|---3---|   B|---3---|   B|---3---|   B|---3---|
G|---0----|   G|---0---|   G|---0---|   G|---2---|   G|---2---|   G|---2---|
D|---2----|   D|---0---|   D|---4---|   D|---0---|   D|---0---|   D|---0---|
A|---3----|   A|---3---|   A|---5---|   A|---0---|   A|---0---|   A|---0---|
E|---3----|   E|---3---|   E|---5---|   E|---x---|   E|---x---|   E|---x---|


Verses   (It's basically these 3 chords until the chorus. Listen to the song for the 
pattern)
e|-0---------0------------------0--------------------------------------------|
B|-1---------0------------------3--------------------------------------------|
G|-0---------0------------------0--------------------------------------------|
D|-2---------0------------------4--------------------------------------------|
A|-3---------3------------------5--------------------------------------------|
E|-3---------3------------------5--------------------------------------------|

   I Need my conscience to keep watch over me


e|-0-------------0--------------0--------------------------------------------|
B|-1-------------0--------------3--------------------------------------------|
G|-0-------------0--------------0--------------------------------------------|
D|-2-------------0--------------4--------------------------------------------|
A|-3-------------3--------------5--------------------------------------------|
E|-3-------------3--------------5--------------------------------------------|

   To protect me from my    -   self...


Chorus
e|-0------------------3----------2-------0--------0-------0-------0----------|
B|-3------------------3----------3-------1--------0-------1-------0----------|
G|-2------------------2----------2-------0--------0-------0-------0----------|
D|-0------------------0----------0-------2--------0-------2-------0----------|
A|-0------------------0----------0-------3--------3-------3-------3----------|
E|-x------------------x----------x-------3--------3-------3-------3----------|
   Yea – ee  On  the  lea  the   rising  wind     blows


 Note: If you watch Toward the Within, Brendon is playing about 4 other chords right 
the chorus. I'm not sure what these are so i didn't tab them. But i watched the video and 
is essentially what he plays.
===============================================================================

            
            
Suggest correction
Creating personal tab
Creating personal tab
You can edit any tab online and save it as your Personal.

You can edit, replace or remove any tab part or add personal notes – all changes will be seen only by you.

Personal tabs can be accessed anytime from any device, even offline.
Learn more »
comments
print report bad tab
1 comment total.
0 reply
Gebinsel 10 Apr 21, 2016 04:19 AM

i was told that the second chord should be:

e |---0---|
B |---0---|
G |---0---|
D |---2---|
A |---3---|
E |---3---|

the missing part after the chorus would be a d shape in 5/4/5/2 and 5/4/5/7.th fret. so:

e |--5--4--5--2----5--4--5--7--|
B |--6--5--6--3----6--5--6--8--|
G |--5--4--5--2----5--4--5--7--|
D |--0--0--0--0----0--0--0--0--|
A |--X--X--X--X----X--X--X--X--|
E |--X--X--X--X----X--X--X--x--|

still imo the most accurate version so far.

guest
You may want to rate the tab now too:
select rating
Wanna post a correction for this tab? Suggest correction