Oops, an error
Loading. Please wait.

Cuba 1970 Tab

version 1
version 1

Whole song

Interactive

4,248 views 6 this week
no commentswrite comment
1 2 3 4 5
excellent!
x 3
add to favorites
launch autoscroll
font size
0
reset
how to read this tab
guitar tuner
Tab Pro tools
  • play this tab
  • loop segment
  • change instrument
  • show fretboard
  • metronome
×
Best way to learn
"Cuba 1970"
Autoscroll
slow
fast
+/-
esc
set tempo
stop
Contributor
Difficulty
novice
Song : Cuba 1970
Artist : Dead Combo
Album : Lusitânia Playboys
Tabbed by : Renato Laia
Tuning: Standard

Backing Guitar

Riff A
||--------------------------------------------------------------|
||--------------------------------------------------------------|
||------------------4-----4--2-2-2--x-x--5--5--4----------------|
||----2--5--2--2/5-----5-----4-4-4--x-x--5--5--4----------------|
||---------------------------------------3--3--2----------------|
||-0------------------------------------------------------------|

Riff B
||--------------------------------------------------------------|
||--------------------------------------------------------------|
||--------------------------------------------------------------|
||----2--5--2-----4-----4-----2-----1------1--1-----------------|
||-------------5-----5-----3-----3--2---2-----2-----------------|
||-0------------------------------------------------------------|

Riff C
||----------------------------------------------------------------------|
||----------------------------------------------------------------------|
||----------------------------------------------------------------------|
||-4--4---4----8--8---8-8----4--4---4-----------------------------------|
||-5--5(5)5----9--9(9)9-9----5--5(5)5---1--1--1-1--2--2--2-/-1--1-1-1-1-|
||-----(5)---------(9)-----------(5)----2--2--2-2--3--3--3-/-2--2-2-2-2-|

Intro: Riff A x2                                         (0:00 - 0:12)
Verse: Riff A x2   Riff B x2   Riff A x2   Riff B x2     (0:12 - 0:56)
Chorus:  Riff C                                          (0:56 - 1:12)
Verse: Riff A x2    Riff B x2                            (1:12 - 1:33)
Chorus:  Riff C                                          (1:33 - 1:49)
Verse: Riff A x8                                         (1:49 - 2:31)
Outro: Riff A (relantando) + Em (in slow down picking)   (2:31 - 2:40)


Lead Guitar

(0:13)                                                         (0:23)
||--7--8-7-8~~---8-7-8~~---------5--7-5-7~~---5--7-5-7~~------------|
||-------------------------7~~-----------------------------5--5-/-4-|
||------------------------------------------------------------------|
||------------------------------------------------------------------|
||------------------------------------------------------------------|
||------------------------------------------------------------------|

(0:24)                                                         (0:34)     
||--7--8-7-8~~---7--8-7~~-------------7--8-7-8~~---7--8-7-----------|
||-----------------------8~~---7~~------------------------8~~~---7~~|
||--------------------------8---------------------------------8-----|
||------------------------------------------------------------------|
||------------------------------------------------------------------|
||------------------------------------------------------------------|

(0:40)                    (0:44)
||--7--8-7-8~~---8-7-8~--------|
||-------------------------7~~-|
||-----------------------------|
||-----------------------------|
||-----------------------------|
||-----------------------------|
(0:45)                                                        (0:55)
||--7--8-7-8~~---7-8-7~~-------------7--8-7-8~~---7--8-7-----------|
||----------------------8~~---7~~------------------------8~~~---7~~|
||-------------------------8---------------------------------8-----|
||-----------------------------------------------------------------|
||-----------------------------------------------------------------|
||-----------------------------------------------------------------|

(0:56)                                                                (1:11)
||-14--19----14-15-14-15--14---9--10-12--10-9--------9----5-3~~-5-/-3--2-2~~|
||--------------------------------------------12--11------------------------|
||--------------------------------------------------------------------------|
||--------------------------------------------------------------------------|
||--------------------------------------------------------------------------|
||--------------------------------------------------------------------------|

(1:12)                                                         (1:22)
||--7--8-7-8~~--7--8-7-8~~---------5--7-5-7~~----7-5-7~~------------|
||---------------------------7~~---------------------------5--5-/-4-|
||------------------------------------------------------------------|
||------------------------------------------------------------------|
||------------------------------------------------------------------|
||------------------------------------------------------------------|

(1:23)                                                         (1:32)     
||--7--8-7-8~~---7--8-7~~-------------7--8-7-8~~---7--8-7-----------|
||-----------------------8~~---7~~------------------------8~~~---7~~|
||--------------------------8---------------------------------8-----|
||------------------------------------------------------------------|
||------------------------------------------------------------------|
||------------------------------------------------------------------|

(1:33)                                                                (1:48)
||-14--19----14-15-14-15--14---9--10-12--10-9--------9----5-3~~-5-/-3--2-2~~|
||--------------------------------------------12--11------------------------|
||--------------------------------------------------------------------------|
||--------------------------------------------------------------------------|
||--------------------------------------------------------------------------|
||--------------------------------------------------------------------------|

(1:49)                                                                 (2:30)
||-7--8-7-8~~--7--8-7-8~~---------5--7-5-7~~---5--7-5-7~~------------|
||--------------------------7~~-----------------------------5--5-/-4-|
||-------------------------------------------------------------------|x4
||-------------------------------------------------------------------|
||-------------------------------------------------------------------|
||-------------------------------------------------------------------|

(2:31)                                           (2:40)
||-2--3-2-3~~--2--3-2-3~~---2---------2~~----^0-------|
||-----------------------------4~~-----------|0-------|
||-------------------------------------------|0-------|
||-------------------------------------------|2-------|
||-------------------------------------------|2-------|
||----------------------------------------------------|


http://www.myspace.com/deadcombo
comments
We did not receive enough feedback on this tab! Please rate:
print report bad tab
1 2 3 4 5
I want to post or [tab]
guest
You may want to rate the tab now too:
select rating
Please do not post tabs as comments. Select "correction" instead!