Oops, an error
Loading. Please wait.

When It Comes To You chords

220 views 24 this week
no commentswrite comment
1 2 3 4 5
1 last vote to show rating
add to favorites
×
Save as Personal and add changes to this tab that will be seen only by you. Learn more ›
×
You can save this tab as Personal to edit and correct it or add notes. All changes will be seen only by you. Learn more »
launch autoscroll
font size
0
reset
transpose
0
reset
display chords
guitar tuner
edit
Autoscroll
slow
fast
+/-
esc
set tempo
stop
About this tab version
This tab offers a simple, accurate play-through of When It Comes To You that I created by listening to the original studio recording (https://www.youtube.com/watch?v=d6GN_Nj-0IQ). Was this info helpful? Yes No
Strumming
There is no strumming pattern for this song yet. and get +5 IQ
DEAD GHOSTS - WHEN IT COMES TO YOU

Chords:
C  8-10-10-9-8-8
Am 577555  
F  133211
G  355433
F# 244322

NO CAPO

[Riff]
e|-------------------------------------------------------------------------------------------|
B|-------------------------------------------------------------------------------------------|
G|---------------------------------------------------------5---5---5-------5-----------------|
D|-----5-----------------------5-------7---7---7---5---7---------------7-------7---5---5---2-|
A|-7-------7---5---3---3---7-------7---------------------------------------------------------|
E|-------------------------------------------------------------------------------------------|

e|-------------------------------------------------------------------------------------------|
B|-------------------------------------------------------------------------------------------|
G|-------------------------------------------------------------------------------------------|
D|-----5-----------------------5-------7---7---7---5-------7---5-------5-------7---5---5---2-|
A|-7-------7---5---3---3---7-------7-------------------7-----------7-------7-----------------|
E|-------------------------------------------------------------------------------------------|

e|---------------|
B|---------------|
G|---------------|
D|-----5---------|
A|-7-------7---5-|
E|---------------|

[Verse]
                   C
When it comes to you 
  Am     F                         G
I try to hold back the tears in my eyes
                  C     Am
Because darlin' I do no right
            F                     G
I've made a lot of mistakes in my life
                     C           Am
And when it comes to you, you're mine
  F                             G
I told you that I'd lose you in time
              C           Am
And girl it's true, don't lie
   F                      G
Or this love will forever die

[Chorus 1]
G   F#  F                         F   F#  G
           Darlin where does your love go
                     G   F#  F
when I'm not around
                     F   F#  G
I need your lovin
G
and I hope that you're holdin' it down 

[Riff]
e|-------------------------------------------------------------------------------------------|
B|-------------------------------------------------------------------------------------------|
G|---------------------------------------------------------5---5---5-------5-----------------|
D|-----5-----------------------5-------7---7---7---5---7---------------7-------7---5---5---2-|
A|-7-------7---5---3---3---7-------7---------------------------------------------------------|
E|-------------------------------------------------------------------------------------------|

e|-------------------------------------------------------------------------------------------|
B|-------------------------------------------------------------------------------------------|
G|-------------------------------------------------------------------------------------------|
D|-----5-----------------------5-------7---7---7---5-------7---5-------5-------7---5---5---2-|
A|-7-------7---5---3---3---7-------7-------------------7-----------7-------7-----------------|
E|-------------------------------------------------------------------------------------------|

e|---------------|
B|---------------|
G|---------------|
D|-----5---------|
A|-7-------7---5-|
E|---------------|

[Verse]
                   C
When it comes to you 
  Am     F                         G
I try to hold back the tears in my eyes
                  C     Am
Because darlin' I do no right
            F                     G
I've made a lot of mistakes in my life
                     C           Am
And when it comes to you, you're mine
  F                             G
I told you that I'd lose you in time
              C           Am
And girl it's true, don't lie
   F                      G
Or this love will forever die

[Chorus 2]
G   F#  F                      F   F#  G
           Darlin I just gotta know
                     G   F#  F 
Where your love goes
                     F   F#  G
I'll be here waiting
G
you know I love you so

C   G   x3

F   G
       I wanna know
C   G   x3

F   G
       I wanna know
C   G   x3

F   G

[Riff]
e|-------------------------------------------------------------------------------------------|
B|-------------------------------------------------------------------------------------------|
G|---------------------------------------------------------5---5---5-------5-----------------|
D|-----5-----------------------5-------7---7---7---5---7---------------7-------7---5---5---2-|
A|-7-------7---5---3---3---7-------7---------------------------------------------------------|
E|-------------------------------------------------------------------------------------------|

e|-------------------------------------------------------------------------------------------|
B|-------------------------------------------------------------------------------------------|
G|-------------------------------------------------------------------------------------------|
D|-----5-----------------------5-------7---7---7---5-------7---5-------5-------7---5---5---2-|
A|-7-------7---5---3---3---7-------7-------------------7-----------7-------7-----------------|
E|-------------------------------------------------------------------------------------------|
  When it comes to you
e|-------------------------------------------------------------------------------------------|
B|-------------------------------------------------------------------------------------------|
G|---------------------------------------------------------5---5---5-------5-----------------|
D|-----5-----------------------5-------7---7---7---5---7---------------7-------7---5---5---2-|
A|-7-------7---5---3---3---7-------7---------------------------------------------------------|
E|-------------------------------------------------------------------------------------------|
  When it comes to you
e|-------------------------------------------------------------------------------------------|
B|-------------------------------------------------------------------------------------------|
G|-------------------------------------------------------------------------------------------|
D|-----5-----------------------5-------7---7---7---5-------7---5-------5-------7---5---5---2-|
A|-7-------7---5---3---3---7-------7-------------------7-----------7-------7-----------------|
E|-------------------------------------------------------------------------------------------|
  When it comes to you
                   C
  When it comes to you

            
            
Suggest correction
Creating personal tab
Creating personal tab
You can edit any tab online and save it as your Personal.

You can edit, replace or remove any tab part or add personal notes – all changes will be seen only by you.

Personal tabs can be accessed anytime from any device, even offline.
Learn more »
Give kudos to tab author, rate the tab!
1 2 3 4 5
comments
print report bad tab
guest
You may want to rate the tab now too:
select rating
Wanna post a correction for this tab? Suggest correction