Oops, an error
Loading. Please wait.
We have an official California Uber Alles tab made by UG professional guitarists. Check out the tab »
×
40,637 views 99 this week
1 commentread comment
1 2 3 4 5
x 22
add to favorites
×
Save as Personal and add changes to this tab that will be seen only by you. Learn more ›
×
You can save this tab as Personal to edit and correct it or add notes. All changes will be seen only by you. Learn more »
launch autoscroll
font size
0
reset
guitar tuner
backing track
0:00
0:00
edit
Autoscroll
slow
fast
+/-
esc
set tempo
stop
Author
Unregistered
Bass tab for "California Uber Alles" by the Dead Kennedys
from "Fresh Fruit for Rotting Vegetables" and
"Give me Convience or give me Death"

[Intro]
G|-----------------------------|
D|-----------------------------|
A|-1/6-6-6-6-6-6-7-7-7-7-7-9-7-|
E|-----------------------------|

[Riff 1]
G|-----------------------------|
D|-----------------------------|  x8
A|-6-6-6-6-6-6-6-7-7-7-7-7-9-7-|
E|-----------------------------|

[Riff 2]
G|-----------------------------|
D|-----------------------------|
A|-6-6-6-6-6-6-6-3-3-3-4-4-4-4-|
E|-----------------------------|

[Riff 1] x3
G|-----------------------------|
D|-----------------------------|
A|-6-6-6-6-6-6-6-7-7-7-7-7-9-7-|
E|-----------------------------|

[Riff 3]
G|----------------------------|
D|----------------------------| x2
A|-6-6-6-6-6-6-6-4-4-4--------|
E|--------------------5-5-2-2-|

[Riff 4]
G|--------------------------------------------|
D|--------------------------------------------|  x2
A|-6-6----6-6----6-6-6-6-6-6-6----------------|
E|----------------------------2-2-2-2-2-2-2-2-|

[Riff 5]
G|----------------------------|
D|----------------------------| x2
A|-6-6-6-6-6-6-6-4-4-4--------|
E|--------------------5-5-2-2-|

[Riff 1] x5
G|-----------------------------|
D|-----------------------------|
A|-6-6-6-6-6-6-6-7-7-7-7-7-9-7-|
E|-----------------------------|

[Riff 3]
G|----------------------------|
D|----------------------------| x2
A|-6-6-6-6-6-6-6-4-4-4--------|
E|--------------------5-5-2-2-|

[Riff 1] x3
G|-----------------------------|
D|-----------------------------|
A|-6-6-6-6-6-6-6-7-7-7-7-7-9-7-|
E|-----------------------------|

[Riff 3]
G|----------------------------|
D|----------------------------| x2
A|-6-6-6-6-6-6-6-4-4-4--------|
E|--------------------5-5-2-2-|

[Riff 4]
G|--------------------------------------------|
D|--------------------------------------------|  x2
A|-6-6----6-6----6-6-6-6-6-6-6----------------|
E|----------------------------2-2-2-2-2-2-2-2-|

[Riff 5]
G|----------------------------|
D|----------------------------| x3
A|-6-6-6-6-6-6-6-4-4-4--------|
E|--------------------5-5-2-2-|

Tempo decreases here
G|------------------|
D|------------------|    This under guitar playing Riff 5
A|-6_______________-|
E|------------------|

[Riff 5] (tempo increasing back to normal)
G|----------------------------|
D|----------------------------| x3
A|-6-6-6-6-6-6-6-4-4-4--------|
E|--------------------5-5-2-2-|

[Riff 4]
G|--------------------------------------------|
D|--------------------------------------------|  x2
A|-6-6----6-6----6-6-6-6-6-6-6----------------|
E|----------------------------2-2-2-2-2-2-2-2-|

[Riff 5]
G|----------------------------|
D|----------------------------| x3
A|-6-6-6-6-6-6-6-4-4-4--------|
E|--------------------5-5-2-2-|

[Outro]
G|----------------------------------------    -----------------------------|
D|---------------------------------------- x3 -----------------------------|
A|-6--6-6-6-6--6-6-6-4--4-4-4-9-9-9-7-7-7-    -6---------------6-6-6-6-----|
E|----------------------------------------    -----------------------------|

************************************

| /  Slide up

************************************

The timing should be right. Look at my other tabs if you can't work
it out. e-mail me with any corrections. The version on
"Give me Convience.." is the same only slower.
Thanks

            
            
Suggest correction
Creating personal tab
Creating personal tab
You can edit any tab online and save it as your Personal.

You can edit, replace or remove any tab part or add personal notes – all changes will be seen only by you.

Personal tabs can be accessed anytime from any device, even offline.
Learn more »
comments
print report bad tab
1 comment total.
+1 reply
barners 10 Apr 05, 2008 12:37 PM

att the end when its dead strict rythm,it sounds like
G--------------------------------------------------------------------
D--------------------4-----------------------------------------------
A---66666-666--4444----4---------------------------------------------
E--------------------------------------------------------------------

guest
Wanna post a correction for this tab? Suggest correction