Oops, an error
Loading. Please wait.

Dog Bite Bass Tab

16 views 1 this week
no commentswrite comment
1 2 3 4 5
3 more votes to show rating
add to favorites
launch autoscroll
font size
0
reset
guitar tuner
Autoscroll
slow
fast
+/-
esc
set tempo
stop
Help us to improve Ultimate-Guitar.com Take our survey!
×
Author
Difficulty
novice
                             DEAD KENNEDYS - DOG BITE

Tabbed by: Rottney (reconssuck)
E-mail: reconssuck@hotmail.de

Artist: Dead Kennedys
Song: Dog Bite
Album: In God We Trust Inc. (1981)



[Intro] x2

G|---------|-------|---------|-------|
D|---------|-------|---------|-2-----|
A|---------|-3-----|-3-3-3-3-|-------|
E|-5-5-5-5-|----3--|---------|----3--|

[Intro End]

G|---------|-----------|------------|---------|
D|---------|-----------|----------2-|---------|
A|---------|-3---------|-3-3-3-3----|---------|
E|-5-5-5-5-|---3-3-3-3-|------------|-3-3-3-3-|



[Verse] x2


G|-----------------|-----------------|-----------------|-----------------|
D|-----------------|-----------------|-----------------|-----------------|
A|-----------------|-----------------|-----------------|-----------------|
E|-5-5-5-5-5-5-5-3-|-5-5-5-5-5-5-5-3-|-1-1-1-1-1-1-1-0-|-1-1-1-1-1-1-1-0-|


[Chorus] x2

G|---------|---------|---------|--------|------|
D|---------|---------|---------|--------|------|
A|---------|---------|---------|--------|------|
E|-5-5-5-5-|-1-1-1-1-|-5-5-5-5-|1-1-1-1-|-3-3--|

[Chorus End] x2

G|---------|-----------|------------------|
D|---------|-----------|-------2---2---2--|
A|---------|-----------|-3-3-3---3---3----|
E|-5-5-5-5-|-3-3-3-3-3-|------------------|

[Verse] x2


G|-----------------|-----------------|-----------------|-----------------|
D|-----------------|-----------------|-----------------|-----------------|
A|-----------------|-----------------|-----------------|-----------------|
E|-5-5-5-5-5-5-5-3-|-5-5-5-5-5-5-5-3-|-1-1-1-1-1-1-1-0-|-1-1-1-1-1-1-1-0-|

[Chorus End] x2

G|---------|-----------|------------------|
D|---------|-----------|-------2---2---2--|
A|---------|-----------|-3-3-3---3---3----|
E|-5-5-5-5-|-3-3-3-3-3-|------------------|

[Chorus] x2

G|---------|---------|---------|--------|------|
D|---------|---------|---------|--------|------|
A|---------|---------|---------|--------|------|
E|-5-5-5-5-|-1-1-1-1-|-5-5-5-5-|1-1-1-1-|-3-3--|


[Chorus End] x2

G|---------|-----------|------------------|
D|---------|-----------|-------2---2---2--|
A|---------|-----------|-3-3-3---3---3----|
E|-5-5-5-5-|-3-3-3-3-3-|------------------|

[Verse] x2


G|-----------------|-----------------|-----------------|-----------------|
D|-----------------|-----------------|-----------------|-----------------|
A|-----------------|-----------------|-----------------|-----------------|
E|-5-5-5-5-5-5-5-3-|-5-5-5-5-5-5-5-3-|-1-1-1-1-1-1-1-0-|-1-1-1-1-1-1-1-0-|

(end song abruptly)


That's all
Enjoy and Rate


Suggest correction
Give kudos to tab author, rate the tab!
1 2 3 4 5
comments
print report bad tab
guest
You may want to rate the tab now too:
select rating
Wanna post a correction for this tab? Suggest correction