Oops, an error
Loading. Please wait.

Drug Me bass

version 1
version 1

Whole song

Interactive

1,946 views 3 this week
1 commentread comment
1 2 3 4 5
1 last vote to show rating
add to favorites
×
Save as Personal and add changes to this tab that will be seen only by you. Learn more ›
×
You can save this tab as Personal to edit and correct it or add notes. All changes will be seen only by you. Learn more »
launch autoscroll
font size
0
reset
guitar tuner
edit
Autoscroll
slow
fast
+/-
esc
set tempo
stop
Author
Difficulty
Dead Kennedys - Drug Me, Off The Album Fresh Fruit for Rotting Vegetables In 1980

G|-------------------------------|
D|-------------------------------|
A|----4-2-4-2-4-2-4-2------------|
E|-------------------------------|

|--------------------------|
|---------------6---4------|
|---4-4-4--7h8p---7---6----|
|--------------------------|


|---------------------------------|
|--------------------5------------|
|---------7-----------------------|
|-0-0-0-0----0-0-0-0--------------|

|-----------|
|-----------|
|--5-3-5-6--|
|-----------|


|--------------------------------|
|--------------------------------|
|--------------------------------|
|----3p-1p-3p-1p-3p-1p-3p-1p-----|

|----------------------------|
|----------------------------|
|---------------5---3--------|
|---3-3-3--6h7p---6---5------|


|-------------|
|-------------|
|---5-3-5-6---|
|-------------|

|---------------------------------------------|
|---------------------5----------8--8--8--8---|
|----------7----------------------------------|
|--0-0-0-0----0-0-0-0----0-0-0-0--------------|

|------------------|
|------------------|
|--------4-6-4-6---|
|---6-8+-----------|

|---------------------------------|
|---------------------------------|
|---9999-888----------------------|
|------------6-8-6-8-6-888--------|

|--------------------------|
|--------------------------|
|--------------------------|
|--5p-3p-5p-3p-5p-3p-5p-3p-|

|-------------------------------|
|-------------------------------|
|---------------7---5-----------|
|--5-5-5--8h9p----8---7---------|

|-------------------------------------|
|---------------------5----------8----|
|----------7--------------------------|
|--0-0-0-0----0-0-0-0----0-0-0-0------|

|-------------|
|-------------|
|---5-3-5-6---|
|-------------|

|------------------------------------------------|
|------------------------------------------------|
|--5-3-5-6-5-6-7-8-9-10-11-12-13-14-15-16-17//0--|
|------------------------------------------------|
Suggest correction
Creating personal tab
Creating personal tab
You can edit any tab online and save it as your Personal.

You can edit, replace or remove any tab part or add personal notes – all changes will be seen only by you.

Personal tabs can be accessed anytime from any device, even offline.
Learn more »
Give kudos to tab author, rate the tab!
1 2 3 4 5
comments
print report bad tab
1 comment total.
+1 reply
dakota_s_ 277 Nov 10, 2007 03:16 PM

Great tab. Sometimes you didn't write how many notes to play though so the first time through at parts i would only play
the note once when it was supposed to be played like five times in a row but at least you gave the right notes the whole
time! 5*'s!

guest
You may want to rate the tab now too:
select rating
Wanna post a correction for this tab? Suggest correction